  0
SECTION
  2
HEADER
  9
$ACADVER
  1
AC1014
  9
$ACADMAINTVER
 70
     0
  9
$DWGCODEPAGE
  3
ANSI_1252
  9
$INSBASE
 10
0.0
 20
0.0
 30
0.0
  9
$EXTMIN
 10
0.0
 20
0.0
 30
0.0
  9
$EXTMAX
 10
1253.083008
 20
817.969849
 30
2.0
  9
$LIMMIN
 10
0.0
 20
0.0
  9
$LIMMAX
 10
420.0
 20
297.0
  9
$ORTHOMODE
 70
     0
  9
$REGENMODE
 70
     1
  9
$FILLMODE
 70
     1
  9
$QTEXTMODE
 70
     0
  9
$MIRRTEXT
 70
     1
  9
$DRAGMODE
 70
     2
  9
$LTSCALE
 40
1.0
  9
$OSMODE
 70
     0
  9
$ATTMODE
 70
     1
  9
$TEXTSIZE
 40
2.5
  9
$TRACEWID
 40
1.0
  9
$TEXTSTYLE
  7
STANDARD
  9
$CLAYER
  8
0
  9
$CELTYPE
  6
BYLAYER
  9
$CECOLOR
 62
   256
  9
$CELTSCALE
 40
1.0
  9
$DELOBJ
 70
     1
  9
$DISPSILH
 70
     0
  9
$DIMSCALE
 40
1.0
  9
$DIMASZ
 40
2.5
  9
$DIMEXO
 40
0.625
  9
$DIMDLI
 40
3.75
  9
$DIMRND
 40
0.0
  9
$DIMDLE
 40
0.0
  9
$DIMEXE
 40
1.25
  9
$DIMTP
 40
0.0
  9
$DIMTM
 40
0.0
  9
$DIMTXT
 40
2.5
  9
$DIMCEN
 40
2.5
  9
$DIMTSZ
 40
0.0
  9
$DIMTOL
 70
     0
  9
$DIMLIM
 70
     0
  9
$DIMTIH
 70
     0
  9
$DIMTOH
 70
     0
  9
$DIMSE1
 70
     0
  9
$DIMSE2
 70
     0
  9
$DIMTAD
 70
     1
  9
$DIMZIN
 70
     8
  9
$DIMBLK
  1

  9
$DIMASO
 70
     1
  9
$DIMSHO
 70
     1
  9
$DIMPOST
  1

  9
$DIMAPOST
  1

  9
$DIMALT
 70
     0
  9
$DIMALTD
 70
     3
  9
$DIMALTF
 40
0.03937
  9
$DIMLFAC
 40
1.0
  9
$DIMTOFL
 70
     1
  9
$DIMTVP
 40
0.0
  9
$DIMTIX
 70
     0
  9
$DIMSOXD
 70
     0
  9
$DIMSAH
 70
     0
  9
$DIMBLK1
  1

  9
$DIMBLK2
  1

  9
$DIMSTYLE
  2

  9
$DIMCLRD
 70
     0
  9
$DIMCLRE
 70
     0
  9
$DIMCLRT
 70
     0
  9
$DIMTFAC
 40
1.0
  9
$DIMGAP
 40
0.625
  9
$DIMJUST
 70
     0
  9
$DIMSD1
 70
     0
  9
$DIMSD2
 70
     0
  9
$DIMTOLJ
 70
     0
  9
$DIMTZIN
 70
     8
  9
$DIMALTZ
 70
     0
  9
$DIMALTTZ
 70
     0
  9
$DIMFIT
 70
     0
  9
$DIMUPT
 70
     0
  9
$DIMUNIT
 70
     2
  9
$DIMDEC
 70
     2
  9
$DIMTDEC
 70
     2
  9
$DIMALTU
 70
     2
  9
$DIMALTTD
 70
     3
  9
$DIMTXSTY
  7
STANDARD
  9
$DIMAUNIT
 70
     0
  9
$LUNITS
 70
     2
  9
$LUPREC
 70
     4
  9
$SKETCHINC
 40
1.0
  9
$FILLETRAD
 40
2.5
  9
$AUNITS
 70
     0
  9
$AUPREC
 70
     0
  9
$MENU
  1
.
  9
$ELEVATION
 40
0.0
  9
$PELEVATION
 40
0.0
  9
$THICKNESS
 40
0.0
  9
$LIMCHECK
 70
     0
  9
$BLIPMODE
 70
     1
  9
$CHAMFERA
 40
2.5
  9
$CHAMFERB
 40
2.5
  9
$CHAMFERC
 40
0.0
  9
$CHAMFERD
 40
0.0
  9
$SKPOLY
 70
     0
  9
$TDCREATE
 40
0.000000000
  9
$TDUPDATE
 40
0.000000000
  9
$TDINDWG
 40
0.0000000000
  9
$TDUSRTIMER
 40
0.0000000000
  9
$USRTIMER
 70
     1
  9
$ANGBASE
 50
0.0
  9
$ANGDIR
 70
     0
  9
$PDMODE
 70
     0
  9
$PDSIZE
 40
0.0
  9
$PLINEWID
 40
0.0
  9
$COORDS
 70
     0
  9
$SPLFRAME
 70
     0
  9
$SPLINETYPE
 70
     6
  9
$SPLINESEGS
 70
     8
  9
$ATTDIA
 70
     0
  9
$ATTREQ
 70
     1
  9
$HANDLING
 70
     1
  9
$HANDSEED
  5
3AB
  9
$SURFTAB1
 70
     6
  9
$SURFTAB2
 70
     6
  9
$SURFTYPE
 70
     6
  9
$SURFU
 70
     6
  9
$SURFV
 70
     6
  9
$UCSNAME
  2

  9
$UCSORG
 10
0.0
 20
0.0
 30
0.0
  9
$UCSXDIR
 10
1.0
 20
0.0
 30
0.0
  9
$UCSYDIR
 10
0.0
 20
1.0
 30
0.0
  9
$PUCSNAME
  2

  9
$PUCSORG
 10
0.0
 20
0.0
 30
0.0
  9
$PUCSXDIR
 10
1.0
 20
0.0
 30
0.0
  9
$PUCSYDIR
 10
0.0
 20
1.0
 30
0.0
  9
$USERI1
 70
     0
  9
$USERI2
 70
     0
  9
$USERI3
 70
     0
  9
$USERI4
 70
     0
  9
$USERI5
 70
     0
  9
$USERR1
 40
0.0
  9
$USERR2
 40
0.0
  9
$USERR3
 40
0.0
  9
$USERR4
 40
0.0
  9
$USERR5
 40
0.0
  9
$WORLDVIEW
 70
     1
  9
$SHADEDGE
 70
     3
  9
$SHADEDIF
 70
    70
  9
$TILEMODE
 70
     1
  9
$MAXACTVP
 70
    48
  9
$PINSBASE
 10
0.0
 20
0.0
 30
0.0
  9
$PLIMCHECK
 70
     0
  9
$PEXTMIN
 10
0.0
 20
0.0
 30
0.0
  9
$PEXTMAX
 10
1253.083008
 20
817.969849
 30
2.0
  9
$PLIMMIN
 10
0.0
 20
0.0
  9
$PLIMMAX
 10
420.0
 20
297.0
  9
$UNITMODE
 70
     0
  9
$VISRETAIN
 70
     0
  9
$PLINEGEN
 70
     0
  9
$PSLTSCALE
 70
     1
  9
$TREEDEPTH
 70
  3020
  9
$PICKSTYLE
 70
     1
  9
$CMLSTYLE
  2
STANDARD
  9
$CMLJUST
 70
     0
  9
$CMLSCALE
 40
20.0
  9
$PROXYGRAPHICS
 70
     1
  9
$MEASUREMENT
 70
     1
  0
ENDSEC
  0
SECTION
  2
CLASSES
  0
CLASS
  1
LWPOLYLINE
  2
AcDbPolyline
  3
"AutoCAD"
 90
        0
280
     0
281
     1
  0
CLASS
  1
IMAGE
  2
AcDbRasterImage
  3
ISM
 90
      127
280
     0
281
     1
  0
CLASS
  1
OLE2FRAME
  2
AcDbOle2Frame
  3
""
 90
        0
280
     0
281
     1
  0
CLASS
  1
HATCH
  2
AcDbHatch
  3
"ACAD_SEDONA"
 90
        0
280
     0
281
     1
  0
CLASS
  1
DICTIONARYVAR
  2
AcDbDictionaryVar
  3
"AutoCAD"
 90
        0
280
     0
281
     0
  0
CLASS
  1
RASTERVARIABLES
  2
AcDbRasterVariables
  3
ISM
 90
        0
280
     0
281
     0
  0
CLASS
  1
IMAGEDEF
  2
AcDbRasterImageDef
  3
ISM
 90
        0
280
     0
281
     0
  0
CLASS
  1
IMAGEDEF_REACTOR
  2
AcDbRasterImageDefReactor
  3
ISM
 90
        1
280
     0
281
     0
  0
CLASS
  1
IDBUFFER
  2
AcDbIdBuffer
  3
"Acad"
 90
        0
280
     0
281
     0
  0
CLASS
  1
SPATIAL_FILTER
  2
AcDbSpatialFilter
  3
"Acad"
 90
        0
280
     0
281
     0
  0
CLASS
  1
XRECORD
  2
AcDbXrecord
  3
"<Built In>"
 90
        0
280
     0
281
     0
  0
CLASS
  1
SORTENTSTABLE
  2
AcDbSortentsTable
  3
"AutoCAD"
 90
        0
280
     0
281
     0
  0
CLASS
  1
LAYER_INDEX
  2
AcDbLayerIndex
  3
"Acad"
 90
        0
280
     0
281
     0
  0
CLASS
  1
SPATIAL_INDEX
  2
AcDbSpatialIndex
  3
"Acad"
 90
        0
280
     0
281
     0
  0
CLASS
  1
OBJECT_PTR
  2
CAseDLPNTableRecord
  3
"ASE-LPNTableRecord"
 90
        1
280
     0
281
     0
  0
CLASS
  1
LAYOUT
  2
AcDbLayout
  3
"AutoCAD 2000"
 90
        0
280
     0
281
     0
  0
CLASS
  1
PLOTSETTINGS
  2
AcDbPlotSettings
  3
"AutoCAD 2000"
 90
        0
280
     0
281
     0
  0
CLASS
  1
ACDBDICTIONARYWDFLT
  2
AcDbDictionaryWithDefault
  3
"AutoCAD 2000"
 90
        0
280
     0
281
     0
  0
CLASS
  1
ACDBPLACEHOLDER
  2
AcDbPlaceHolder
  3
"AutoCAD 2000"
 90
        0
280
     0
281
     0
  0
CLASS
  1
VBA_PROJECT
  2
AcDbVbaProject
  3
"acadvba"
 90
        0
280
     0
281
     0
  0
CLASS
  1
WIPEOUT
  2
AcDbWipeout
  3
WipeOut|AutoCAD Express Tool|expresstools@autodesk.com
 90
      127
280
     0
281
     1
  0
CLASS
  1
WIPEOUTVARIABLES
  2
AcDbWipeoutVariables
  3
WipeOut|AutoCAD Express Tool|expresstools@autodesk.com
 90
        0
280
     0
281
     0
  0
CLASS
  1
RTEXT
  2
RText
  3
RText|AutoCAD Express Tool|expresstools@autodesk.com
 90
        0
280
     0
281
     1
  0
CLASS
  1
ARCALIGNEDTEXT
  2
AcDbArcAlignedText
  3
ATEXT|AutoCAD Express Tool|expresstools@autodesk.com
 90
        0
280
     0
281
     1
  0
ENDSEC
  0
SECTION
  2
TABLES
  0
TABLE
  2
VPORT
  5
7
100
AcDbSymbolTable
 70
     1
  0
VPORT
  5
15
100
AcDbSymbolTableRecord
100
AcDbViewportTableRecord
  2
*ACTIVE
 70
     0
 10
0.0
 20
0.0
 11
1.0
 21
1.0
 12
6.591288
 22
4.579184
 13
0.0
 23
0.0
 14
1.0
 24
1.0
 15
0.0
 25
0.0
 16
0.0
 26
0.0
 36
1.0
 17
0.0
 27
0.0
 37
0.0
 40
9.158369
 41
0.688564
 42
50.0
 43
0.0
 44
0.0
 50
0.0
 51
0.0
 71
     0
 72
   100
 73
     1
 74
     1
 75
     0
 76
     0
 77
     0
 78
     0
  0
ENDTAB
  0
TABLE
  2
LTYPE
  5
4
100
AcDbSymbolTable
 70
     3
  0
LTYPE
  5
11
100
AcDbSymbolTableRecord
100
AcDbLinetypeTableRecord
  2
BYBLOCK
 70
    64
  3

 72
    65
 73
     0
 40
0.0
  0
LTYPE
  5
12
100
AcDbSymbolTableRecord
100
AcDbLinetypeTableRecord
  2
BYLAYER
 70
    64
  3

 72
    65
 73
     0
 40
0.0
  0
LTYPE
  5
13
100
AcDbSymbolTableRecord
100
AcDbLinetypeTableRecord
  2
CONTINUOUS
 70
    64
  3
Solid line
 72
    65
 73
     0
 40
0.0
  0
ENDTAB
  0
TABLE
  2
LAYER
  5
2
100
AcDbSymbolTable
 70
     1
  0
LAYER
  5
14
100
AcDbSymbolTableRecord
100
AcDbLayerTableRecord
  2
0
 70
     0
 62
     7
  6
CONTINUOUS
  0
ENDTAB
  0
TABLE
  2
STYLE
  5
3
100
AcDbSymbolTable
 70
     1
  0
STYLE
  5
17
100
AcDbSymbolTableRecord
100
AcDbTextStyleTableRecord
  2
STANDARD
 70
     0
 40
0.0
 41
1.0
 50
0.0
 71
     0
 42
0.0
  3
txt
  4

  0
ENDTAB
  0
TABLE
  2
VIEW
  5
5
100
AcDbSymbolTable
 70
     0
  0
ENDTAB
  0
TABLE
  2
UCS
  5
6
100
AcDbSymbolTable
 70
     0
  0
ENDTAB
  0
TABLE
  2
APPID
  5
8
100
AcDbSymbolTable
 70
     1
  0
APPID
  5
16
100
AcDbSymbolTableRecord
100
AcDbRegAppTableRecord
  2
ACAD
 70
     0
  0
ENDTAB
  0
TABLE
  2
DIMSTYLE
  5
9
100
AcDbSymbolTable
 70
     1
  0
DIMSTYLE
105
18
100
AcDbSymbolTableRecord
100
AcDbDimStyleTableRecord
  2
STANDARD
 70
     0
  3

  4

  5

  6

  7

 40
1.0
 41
0.18
 42
0.0625
 43
0.38
 44
0.18
 45
0.0
 46
0.0
 47
0.0
 48
0.0
 71
     0
 72
     0
 73
     1
 74
     1
 75
     0
 76
     0
 77
     0
 78
     0
140
0.18
141
0.09
142
0.0
143
25.4
144
1.0
145
0.0
146
1.0
147
0.09
170
     0
171
     2
172
     0
173
     0
174
     0
175
     0
176
     0
177
     0
178
     0
270
     2
271
     4
272
     4
273
     2
274
     2
275
     0
280
     0
281
     0
282
     0
283
     1
284
     0
285
     0
286
     0
287
     3
288
     0
340
17
  0
ENDTAB
  0
TABLE
  2
BLOCK_RECORD
  5
1
100
AcDbSymbolTable
 70
     0
  0
BLOCK_RECORD
  5
A
100
AcDbSymbolTableRecord
100
AcDbBlockTableRecord
  2
*MODEL_SPACE
  0
BLOCK_RECORD
  5
B
100
AcDbSymbolTableRecord
100
AcDbBlockTableRecord
  2
*PAPER_SPACE
  0
ENDTAB
  0
ENDSEC
  0
SECTION
  2
BLOCKS
  0
BLOCK
  5
D
100
AcDbEntity
  8
0
100
AcDbBlockBegin
  2
*MODEL_SPACE
 70
     0
 10
0.0
 20
0.0
 30
0.0
  3
*MODEL_SPACE
  1

  0
ENDBLK
  5
E
100
AcDbEntity
  8
0
100
AcDbBlockEnd
  0
BLOCK
  5
F
100
AcDbEntity
 67
     1
  8
0
100
AcDbBlockBegin
  2
*PAPER_SPACE
 70
     0
 10
0.0
 20
0.0
 30
0.0
  3
*PAPER_SPACE
  1

  0
ENDBLK
  5
10
100
AcDbEntity
 67
     1
  8
0
100
AcDbBlockEnd
  0
ENDSEC
  0
SECTION
  2
ENTITIES
  0
VIEWPORT
  5
3AA
100
AcDbEntity
 67
     1
  8
0
 62
     0
 48
0.0
100
AcDbViewport
 10
0.0
 20
0.0
 30
0.0
 40
1000.0
 41
1000.0
 68
     1
 69
     1
1001
ACAD
1000
MVIEW
1002
{
1070
    16
1010
0.0
1020
0.0
1030
0.0
1010
0.0
1020
0.0
1030
1.0
1040
0.0
1040
1000.0
1040
0.0
1040
0.0
1040
50.0
1040
0.0
1040
0.0
1070
     0
1070
   100
1070
     1
1070
     1
1070
     0
1070
     0
1070
     0
1070
     0
1040
0.0
1040
0.0
1040
0.0
1040
1.0
1040
1.0
1040
1.0
1040
1.0
1070
     0
1002
{
1002
}
1002
}
  0
LINE
  5
1D
100
AcDbEntity
  8
0
 62
     7
100
AcDbLine
 10
525.137085
 20
299.969879
 30
0.0
 11
525.137085
 21
184.969879
 31
0.0
210
0.0
220
0.0
230
1.0
  0
LINE
  5
1E
100
AcDbEntity
  8
0
 62
     7
 48
0.08
100
AcDbLine
 10
525.137085
 20
189.669876
 30
0.0
 11
521.937073
 21
189.669876
 31
0.0
210
0.0
220
0.0
230
1.0
  0
LINE
  5
1F
100
AcDbEntity
  8
0
 62
     7
 48
0.08
100
AcDbLine
 10
525.137085
 20
199.969879
 30
0.0
 11
521.937073
 21
199.969879
 31
0.0
210
0.0
220
0.0
230
1.0
  0
LINE
  5
20
100
AcDbEntity
  8
0
 62
     7
 48
0.2575
100
AcDbLine
 10
521.937073
 20
189.669876
 30
0.0
 11
521.937073
 21
199.969879
 31
0.0
210
0.0
220
0.0
230
1.0
  0
LINE
  5
21
100
AcDbEntity
  8
0
 62
     7
 48
0.08
100
AcDbLine
 10
525.137085
 20
210.269882
 30
0.0
 11
521.937073
 21
210.269882
 31
0.0
210
0.0
220
0.0
230
1.0
  0
LINE
  5
22
100
AcDbEntity
  8
0
 62
     7
 48
0.2575
100
AcDbLine
 10
521.937073
 20
199.969879
 30
0.0
 11
521.937073
 21
210.269882
 31
0.0
210
0.0
220
0.0
230
1.0
  0
LINE
  5
23
100
AcDbEntity
  8
0
 62
     7
 48
0.08
100
AcDbLine
 10
525.137085
 20
214.669876
 30
0.0
 11
521.937073
 21
214.669876
 31
0.0
210
0.0
220
0.0
230
1.0
  0
LINE
  5
24
100
AcDbEntity
  8
0
 62
     7
 48
0.08
100
AcDbLine
 10
525.137085
 20
224.969879
 30
0.0
 11
521.937073
 21
224.969879
 31
0.0
210
0.0
220
0.0
230
1.0
  0
LINE
  5
25
100
AcDbEntity
  8
0
 62
     7
 48
0.2575
100
AcDbLine
 10
521.937073
 20
214.669876
 30
0.0
 11
521.937073
 21
224.969879
 31
0.0
210
0.0
220
0.0
230
1.0
  0
LINE
  5
26
100
AcDbEntity
  8
0
 62
     7
 48
0.08
100
AcDbLine
 10
525.137085
 20
235.269882
 30
0.0
 11
521.937073
 21
235.269882
 31
0.0
210
0.0
220
0.0
230
1.0
  0
LINE
  5
27
100
AcDbEntity
  8
0
 62
     7
 48
0.2575
100
AcDbLine
 10
521.937073
 20
224.969879
 30
0.0
 11
521.937073
 21
235.269882
 31
0.0
210
0.0
220
0.0
230
1.0
  0
LINE
  5
28
100
AcDbEntity
  8
0
 62
     7
 48
0.0375
100
AcDbLine
 10
526.637085
 20
184.969879
 30
0.0
 11
525.137085
 21
184.969879
 31
0.0
210
0.0
220
0.0
230
1.0
  0
LINE
  5
29
100
AcDbEntity
  8
0
 62
     7
 48
0.0375
100
AcDbLine
 10
526.637085
 20
299.969879
 30
0.0
 11
525.137085
 21
299.969879
 31
0.0
210
0.0
220
0.0
230
1.0
  0
LINE
  5
2A
100
AcDbEntity
  8
0
 62
     7
 48
0.2625
100
AcDbLine
 10
514.137085
 20
256.969879
 30
0.0
 11
514.137085
 21
246.469879
 31
0.0
210
0.0
220
0.0
230
1.0
  0
LINE
  5
2B
100
AcDbEntity
  8
0
 62
     7
 48
0.0875
100
AcDbLine
 10
514.137085
 20
246.469879
 30
0.0
 11
514.137085
 21
242.969879
 31
0.0
210
0.0
220
0.0
230
1.0
  0
LINE
  5
2C
100
AcDbEntity
  8
0
 62
     7
 48
0.2375
100
AcDbLine
 10
521.137085
 20
240.469879
 30
0.0
 11
521.137085
 21
249.969879
 31
0.0
210
0.0
220
0.0
230
1.0
  0
LINE
  5
2D
100
AcDbEntity
  8
0
 62
     7
 48
0.2375
100
AcDbLine
 10
521.137085
 20
249.969879
 30
0.0
 11
521.137085
 21
259.469879
 31
0.0
210
0.0
220
0.0
230
1.0
  0
LINE
  5
2E
100
AcDbEntity
  8
0
 62
     7
 48
0.1
100
AcDbLine
 10
525.137085
 20
240.469879
 30
0.0
 11
521.137085
 21
240.469879
 31
0.0
210
0.0
220
0.0
230
1.0
  0
LINE
  5
2F
100
AcDbEntity
  8
0
 62
     7
 48
0.1
100
AcDbLine
 10
525.137085
 20
249.969879
 30
0.0
 11
521.137085
 21
249.969879
 31
0.0
210
0.0
220
0.0
230
1.0
  0
LINE
  5
30
100
AcDbEntity
  8
0
 62
     7
 48
0.1
100
AcDbLine
 10
525.137085
 20
259.469879
 30
0.0
 11
521.137085
 21
259.469879
 31
0.0
210
0.0
220
0.0
230
1.0
  0
LINE
  5
31
100
AcDbEntity
  8
0
 62
     7
 48
0.175
100
AcDbLine
 10
521.137085
 20
256.969879
 30
0.0
 11
514.137085
 21
256.969879
 31
0.0
210
0.0
220
0.0
230
1.0
  0
LINE
  5
32
100
AcDbEntity
  8
0
 62
     7
 48
0.175
100
AcDbLine
 10
521.137085
 20
242.969879
 30
0.0
 11
514.137085
 21
242.969879
 31
0.0
210
0.0
220
0.0
230
1.0
  0
LINE
  5
33
100
AcDbEntity
  8
0
 62
     7
100
AcDbLine
 10
526.637085
 20
114.969879
 30
0.0
 11
526.637085
 21
786.969849
 31
0.0
210
0.0
220
0.0
230
1.0
  0
LINE
  5
34
100
AcDbEntity
  8
0
 62
     7
 48
0.0625
100
AcDbLine
 10
526.637085
 20
114.969879
 30
0.0
 11
529.137085
 21
114.969879
 31
0.0
210
0.0
220
0.0
230
1.0
  0
LINE
  5
35
100
AcDbEntity
  8
0
 62
     7
100
AcDbLine
 10
529.137085
 20
114.969879
 30
0.0
 11
529.137085
 21
786.969849
 31
0.0
210
0.0
220
0.0
230
1.0
  0
LINE
  5
36
100
AcDbEntity
  8
0
 62
     7
 48
0.0625
100
AcDbLine
 10
526.637085
 20
786.969849
 30
0.0
 11
529.137085
 21
786.969849
 31
0.0
210
0.0
220
0.0
230
1.0
  0
LINE
  5
37
100
AcDbEntity
  8
0
 62
     7
100
AcDbLine
 10
574.137085
 20
114.969879
 30
0.0
 11
574.137085
 21
786.969849
 31
0.0
210
0.0
220
0.0
230
1.0
  0
LINE
  5
38
100
AcDbEntity
  8
0
 62
     7
 48
0.0625
100
AcDbLine
 10
574.137085
 20
114.969879
 30
0.0
 11
576.637085
 21
114.969879
 31
0.0
210
0.0
220
0.0
230
1.0
  0
LINE
  5
39
100
AcDbEntity
  8
0
 62
     7
100
AcDbLine
 10
576.637085
 20
114.969879
 30
0.0
 11
576.637085
 21
786.969849
 31
0.0
210
0.0
220
0.0
230
1.0
  0
LINE
  5
3A
100
AcDbEntity
  8
0
 62
     7
 48
0.0625
100
AcDbLine
 10
574.137085
 20
786.969849
 30
0.0
 11
576.637085
 21
786.969849
 31
0.0
210
0.0
220
0.0
230
1.0
  0
LINE
  5
3B
100
AcDbEntity
  8
0
 62
     7
100
AcDbLine
 10
529.137085
 20
114.969879
 30
0.0
 11
574.137085
 21
114.969879
 31
0.0
210
0.0
220
0.0
230
1.0
  0
LINE
  5
3C
100
AcDbEntity
  8
0
 62
     7
100
AcDbLine
 10
529.137085
 20
114.969879
 30
0.0
 11
529.137085
 21
786.969849
 31
0.0
210
0.0
220
0.0
230
1.0
  0
LINE
  5
3D
100
AcDbEntity
  8
0
 62
     7
 48
0.36875
100
AcDbLine
 10
554.887085
 20
48.719879
 30
0.0
 11
554.887085
 21
33.969879
 31
0.0
210
0.0
220
0.0
230
1.0
  0
LINE
  5
3E
100
AcDbEntity
  8
0
 62
     7
 48
0.36875
100
AcDbLine
 10
548.387085
 20
33.969879
 30
0.0
 11
548.387085
 21
48.719879
 31
0.0
210
0.0
220
0.0
230
1.0
  0
ARC
  5
3F
100
AcDbEntity
  8
0
 62
     7
100
AcDbCircle
 10
551.637085
 20
48.719879
 30
0.0
 40
3.25
210
0.0
220
0.0
230
1.0
100
AcDbArc
 50
0.0
 51
180.000005
  0
LINE
  5
40
100
AcDbEntity
  8
0
 62
     7
 48
0.05
100
AcDbLine
 10
576.637085
 20
61.969879
 30
0.0
 11
576.637085
 21
59.969879
 31
0.0
210
0.0
220
0.0
230
1.0
  0
LINE
  5
41
100
AcDbEntity
  8
0
 62
     7
 48
0.05
100
AcDbLine
 10
526.637085
 20
61.969879
 30
0.0
 11
526.637085
 21
59.969879
 31
0.0
210
0.0
220
0.0
230
1.0
  0
LINE
  5
42
100
AcDbEntity
  8
0
 62
     7
 48
0.032446
100
AcDbLine
 10
528.637085
 20
63.969879
 30
0.0
 11
527.339233
 21
63.969879
 31
0.0
210
0.0
220
0.0
230
1.0
  0
LINE
  5
43
100
AcDbEntity
  8
0
 62
     7
 48
0.05
100
AcDbLine
 10
526.637085
 20
61.969879
 30
0.0
 11
526.637085
 21
63.969879
 31
0.0
210
0.0
220
0.0
230
1.0
  0
LINE
  5
44
100
AcDbEntity
  8
0
 62
     7
 48
0.05
100
AcDbLine
 10
528.637085
 20
61.969879
 30
0.0
 11
526.637085
 21
61.969879
 31
0.0
210
0.0
220
0.0
230
1.0
  0
LINE
  5
45
100
AcDbEntity
  8
0
 62
     7
100
AcDbLine
 10
574.637085
 20
61.969879
 30
0.0
 11
528.637085
 21
61.969879
 31
0.0
210
0.0
220
0.0
230
1.0
  0
LINE
  5
46
100
AcDbEntity
  8
0
 62
     7
 48
0.05
100
AcDbLine
 10
576.637085
 20
61.969879
 30
0.0
 11
574.637085
 21
61.969879
 31
0.0
210
0.0
220
0.0
230
1.0
  0
LINE
  5
47
100
AcDbEntity
  8
0
 62
     7
100
AcDbLine
 10
574.637085
 20
63.969879
 30
0.0
 11
528.637085
 21
63.969879
 31
0.0
210
0.0
220
0.0
230
1.0
  0
LINE
  5
48
100
AcDbEntity
  8
0
 62
     7
 48
0.032446
100
AcDbLine
 10
575.934937
 20
63.969879
 30
0.0
 11
574.637085
 21
63.969879
 31
0.0
210
0.0
220
0.0
230
1.0
  0
LINE
  5
49
100
AcDbEntity
  8
0
 62
     7
 48
0.05
100
AcDbLine
 10
576.637085
 20
61.969879
 30
0.0
 11
576.637085
 21
63.969879
 31
0.0
210
0.0
220
0.0
230
1.0
  0
LINE
  5
4A
100
AcDbEntity
  8
0
 62
     7
 48
0.49375
100
AcDbLine
 10
574.637085
 20
33.969879
 30
0.0
 11
554.887085
 21
33.969879
 31
0.0
210
0.0
220
0.0
230
1.0
  0
LINE
  5
4B
100
AcDbEntity
  8
0
 62
     7
100
AcDbLine
 10
576.637085
 20
59.969879
 30
0.0
 11
576.637085
 21
35.969879
 31
0.0
210
0.0
220
0.0
230
1.0
  0
ARC
  5
4C
100
AcDbEntity
  8
0
 62
     7
100
AcDbCircle
 10
574.637085
 20
35.969879
 30
0.0
 40
2.0
210
0.0
220
0.0
230
1.0
100
AcDbArc
 50
269.999997
 51
360.0
  0
LINE
  5
4D
100
AcDbEntity
  8
0
 62
     7
 48
0.49375
100
AcDbLine
 10
548.387085
 20
33.969879
 30
0.0
 11
528.637085
 21
33.969879
 31
0.0
210
0.0
220
0.0
230
1.0
  0
LINE
  5
4E
100
AcDbEntity
  8
0
 62
     7
100
AcDbLine
 10
526.637085
 20
59.969879
 30
0.0
 11
526.637085
 21
35.969879
 31
0.0
210
0.0
220
0.0
230
1.0
  0
ARC
  5
4F
100
AcDbEntity
  8
0
 62
     7
100
AcDbCircle
 10
528.637085
 20
35.969879
 30
0.0
 40
2.0
210
0.0
220
0.0
230
1.0
100
AcDbArc
 50
180.000005
 51
269.999997
  0
LINE
  5
50
100
AcDbEntity
  8
0
 62
     7
 48
0.36875
100
AcDbLine
 10
548.387085
 20
803.219849
 30
0.0
 11
548.387085
 21
817.969849
 31
0.0
210
0.0
220
0.0
230
1.0
  0
LINE
  5
51
100
AcDbEntity
  8
0
 62
     7
 48
0.36875
100
AcDbLine
 10
554.887085
 20
817.969849
 30
0.0
 11
554.887085
 21
803.219849
 31
0.0
210
0.0
220
0.0
230
1.0
  0
ARC
  5
52
100
AcDbEntity
  8
0
 62
     7
100
AcDbCircle
 10
551.637085
 20
803.219849
 30
0.0
 40
3.25
210
0.0
220
0.0
230
1.0
100
AcDbArc
 50
179.999995
 51
0.0
  0
LINE
  5
53
100
AcDbEntity
  8
0
 62
     7
 48
0.05
100
AcDbLine
 10
526.637085
 20
789.969849
 30
0.0
 11
526.637085
 21
791.969849
 31
0.0
210
0.0
220
0.0
230
1.0
  0
LINE
  5
54
100
AcDbEntity
  8
0
 62
     7
 48
0.05
100
AcDbLine
 10
576.637085
 20
789.969849
 30
0.0
 11
576.637085
 21
791.969849
 31
0.0
210
0.0
220
0.0
230
1.0
  0
LINE
  5
55
100
AcDbEntity
  8
0
 62
     7
 48
0.028021
100
AcDbLine
 10
575.516235
 20
787.969849
 30
0.0
 11
576.637085
 21
787.969849
 31
0.0
210
0.0
220
0.0
230
1.0
  0
LINE
  5
56
100
AcDbEntity
  8
0
 62
     7
 48
0.05
100
AcDbLine
 10
576.637085
 20
789.969849
 30
0.0
 11
576.637085
 21
787.969849
 31
0.0
210
0.0
220
0.0
230
1.0
  0
LINE
  5
57
100
AcDbEntity
  8
0
 62
     7
 48
0.05
100
AcDbLine
 10
574.637085
 20
789.969849
 30
0.0
 11
576.637085
 21
789.969849
 31
0.0
210
0.0
220
0.0
230
1.0
  0
LINE
  5
58
100
AcDbEntity
  8
0
 62
     7
100
AcDbLine
 10
528.637085
 20
789.969849
 30
0.0
 11
574.637085
 21
789.969849
 31
0.0
210
0.0
220
0.0
230
1.0
  0
LINE
  5
59
100
AcDbEntity
  8
0
 62
     7
 48
0.05
100
AcDbLine
 10
526.637085
 20
789.969849
 30
0.0
 11
528.637085
 21
789.969849
 31
0.0
210
0.0
220
0.0
230
1.0
  0
LINE
  5
5A
100
AcDbEntity
  8
0
 62
     7
100
AcDbLine
 10
528.637085
 20
787.969849
 30
0.0
 11
574.637085
 21
787.969849
 31
0.0
210
0.0
220
0.0
230
1.0
  0
LINE
  5
5B
100
AcDbEntity
  8
0
 62
     7
 48
0.027994
100
AcDbLine
 10
526.637085
 20
787.969849
 30
0.0
 11
527.756836
 21
787.969849
 31
0.0
210
0.0
220
0.0
230
1.0
  0
LINE
  5
5C
100
AcDbEntity
  8
0
 62
     7
 48
0.05
100
AcDbLine
 10
526.637085
 20
789.969849
 30
0.0
 11
526.637085
 21
787.969849
 31
0.0
210
0.0
220
0.0
230
1.0
  0
LINE
  5
5D
100
AcDbEntity
  8
0
 62
     7
 48
0.49375
100
AcDbLine
 10
528.637085
 20
817.969849
 30
0.0
 11
548.387085
 21
817.969849
 31
0.0
210
0.0
220
0.0
230
1.0
  0
LINE
  5
5E
100
AcDbEntity
  8
0
 62
     7
100
AcDbLine
 10
526.637085
 20
791.969849
 30
0.0
 11
526.637085
 21
815.969849
 31
0.0
210
0.0
220
0.0
230
1.0
  0
ARC
  5
5F
100
AcDbEntity
  8
0
 62
     7
100
AcDbCircle
 10
528.637085
 20
815.969849
 30
0.0
 40
2.0
210
0.0
220
0.0
230
1.0
100
AcDbArc
 50
90.000003
 51
180.000005
  0
LINE
  5
60
100
AcDbEntity
  8
0
 62
     7
 48
0.49375
100
AcDbLine
 10
554.887085
 20
817.969849
 30
0.0
 11
574.637085
 21
817.969849
 31
0.0
210
0.0
220
0.0
230
1.0
  0
LINE
  5
61
100
AcDbEntity
  8
0
 62
     7
100
AcDbLine
 10
576.637085
 20
791.969849
 30
0.0
 11
576.637085
 21
815.969849
 31
0.0
210
0.0
220
0.0
230
1.0
  0
ARC
  5
62
100
AcDbEntity
  8
0
 62
     7
100
AcDbCircle
 10
574.637085
 20
815.969849
 30
0.0
 40
2.0
210
0.0
220
0.0
230
1.0
100
AcDbArc
 50
0.0
 51
90.000003
  0
LINE
  5
63
100
AcDbEntity
  8
0
 62
     7
 48
0.36875
100
AcDbLine
 10
243.387085
 20
86.719879
 30
0.0
 11
228.637085
 21
86.719879
 31
0.0
210
0.0
220
0.0
230
1.0
  0
LINE
  5
64
100
AcDbEntity
  8
0
 62
     7
 48
0.36875
100
AcDbLine
 10
228.637085
 20
93.219879
 30
0.0
 11
243.387085
 21
93.219879
 31
0.0
210
0.0
220
0.0
230
1.0
  0
ARC
  5
65
100
AcDbEntity
  8
0
 62
     7
100
AcDbCircle
 10
243.387085
 20
89.969879
 30
0.0
 40
3.25
210
0.0
220
0.0
230
1.0
100
AcDbArc
 50
269.999997
 51
90.000003
  0
LINE
  5
66
100
AcDbEntity
  8
0
 62
     7
 48
0.05
100
AcDbLine
 10
256.637085
 20
64.969879
 30
0.0
 11
254.637085
 21
64.969879
 31
0.0
210
0.0
220
0.0
230
1.0
  0
LINE
  5
67
100
AcDbEntity
  8
0
 62
     7
 48
0.05
100
AcDbLine
 10
256.637085
 20
114.969879
 30
0.0
 11
254.637085
 21
114.969879
 31
0.0
210
0.0
220
0.0
230
1.0
  0
LINE
  5
68
100
AcDbEntity
  8
0
 62
     7
 48
0.05
100
AcDbLine
 10
256.637085
 20
114.969879
 30
0.0
 11
258.637085
 21
114.969879
 31
0.0
210
0.0
220
0.0
230
1.0
  0
LINE
  5
69
100
AcDbEntity
  8
0
 62
     7
 48
0.05
100
AcDbLine
 10
256.637085
 20
112.969879
 30
0.0
 11
256.637085
 21
114.969879
 31
0.0
210
0.0
220
0.0
230
1.0
  0
LINE
  5
6A
100
AcDbEntity
  8
0
 62
     7
100
AcDbLine
 10
256.637085
 20
66.969879
 30
0.0
 11
256.637085
 21
112.969879
 31
0.0
210
0.0
220
0.0
230
1.0
  0
LINE
  5
6B
100
AcDbEntity
  8
0
 62
     7
 48
0.05
100
AcDbLine
 10
256.637085
 20
64.969879
 30
0.0
 11
256.637085
 21
66.969879
 31
0.0
210
0.0
220
0.0
230
1.0
  0
LINE
  5
6C
100
AcDbEntity
  8
0
 62
     7
100
AcDbLine
 10
258.637085
 20
66.969879
 30
0.0
 11
258.637085
 21
112.969879
 31
0.0
210
0.0
220
0.0
230
1.0
  0
LINE
  5
6D
100
AcDbEntity
  8
0
 62
     7
 48
0.05
100
AcDbLine
 10
256.637085
 20
64.969879
 30
0.0
 11
258.637085
 21
64.969879
 31
0.0
210
0.0
220
0.0
230
1.0
  0
LINE
  5
6E
100
AcDbEntity
  8
0
 62
     7
 48
0.49375
100
AcDbLine
 10
228.637085
 20
66.969879
 30
0.0
 11
228.637085
 21
86.719879
 31
0.0
210
0.0
220
0.0
230
1.0
  0
LINE
  5
6F
100
AcDbEntity
  8
0
 62
     7
100
AcDbLine
 10
254.637085
 20
64.969879
 30
0.0
 11
230.637085
 21
64.969879
 31
0.0
210
0.0
220
0.0
230
1.0
  0
ARC
  5
70
100
AcDbEntity
  8
0
 62
     7
100
AcDbCircle
 10
230.637085
 20
66.969879
 30
0.0
 40
2.0
210
0.0
220
0.0
230
1.0
100
AcDbArc
 50
180.000005
 51
269.999997
  0
LINE
  5
71
100
AcDbEntity
  8
0
 62
     7
 48
0.49375
100
AcDbLine
 10
228.637085
 20
93.219879
 30
0.0
 11
228.637085
 21
112.969879
 31
0.0
210
0.0
220
0.0
230
1.0
  0
LINE
  5
72
100
AcDbEntity
  8
0
 62
     7
100
AcDbLine
 10
254.637085
 20
114.969879
 30
0.0
 11
230.637085
 21
114.969879
 31
0.0
210
0.0
220
0.0
230
1.0
  0
ARC
  5
73
100
AcDbEntity
  8
0
 62
     7
100
AcDbCircle
 10
230.637085
 20
112.969879
 30
0.0
 40
2.0
210
0.0
220
0.0
230
1.0
100
AcDbArc
 50
90.000003
 51
180.000005
  0
LINE
  5
74
100
AcDbEntity
  8
0
 62
     7
100
AcDbLine
 10
584.637085
 20
64.969879
 30
0.0
 11
259.637085
 21
64.969879
 31
0.0
210
0.0
220
0.0
230
1.0
  0
LINE
  5
75
100
AcDbEntity
  8
0
 62
     7
100
AcDbLine
 10
584.637085
 20
67.469879
 30
0.0
 11
259.637085
 21
67.469879
 31
0.0
210
0.0
220
0.0
230
1.0
  0
LINE
  5
76
100
AcDbEntity
  8
0
 62
     7
 48
0.0625
100
AcDbLine
 10
584.637085
 20
64.969879
 30
0.0
 11
584.637085
 21
67.469879
 31
0.0
210
0.0
220
0.0
230
1.0
  0
LINE
  5
77
100
AcDbEntity
  8
0
 62
     7
 48
0.0625
100
AcDbLine
 10
584.637085
 20
112.469879
 30
0.0
 11
584.637085
 21
114.969879
 31
0.0
210
0.0
220
0.0
230
1.0
  0
LINE
  5
78
100
AcDbEntity
  8
0
 62
     7
 48
0.0625
100
AcDbLine
 10
259.637085
 20
64.969879
 30
0.0
 11
259.637085
 21
67.469879
 31
0.0
210
0.0
220
0.0
230
1.0
  0
LINE
  5
79
100
AcDbEntity
  8
0
 62
     7
100
AcDbLine
 10
584.637085
 20
114.969879
 30
0.0
 11
259.637085
 21
114.969879
 31
0.0
210
0.0
220
0.0
230
1.0
  0
LINE
  5
7A
100
AcDbEntity
  8
0
 62
     7
100
AcDbLine
 10
584.637085
 20
112.469879
 30
0.0
 11
259.637085
 21
112.469879
 31
0.0
210
0.0
220
0.0
230
1.0
  0
LINE
  5
7B
100
AcDbEntity
  8
0
 62
     7
 48
0.0625
100
AcDbLine
 10
259.637085
 20
112.469879
 30
0.0
 11
259.637085
 21
114.969879
 31
0.0
210
0.0
220
0.0
230
1.0
  0
LINE
  5
7C
100
AcDbEntity
  8
0
 62
     7
100
AcDbLine
 10
259.637085
 20
67.469879
 30
0.0
 11
259.637085
 21
112.469879
 31
0.0
210
0.0
220
0.0
230
1.0
  0
LINE
  5
7D
100
AcDbEntity
  8
0
 62
     7
100
AcDbLine
 10
584.637085
 20
67.469879
 30
0.0
 11
259.637085
 21
67.469879
 31
0.0
210
0.0
220
0.0
230
1.0
  0
LINE
  5
7E
100
AcDbEntity
  8
0
 62
     7
 48
0.36875
100
AcDbLine
 10
600.887085
 20
93.219879
 30
0.0
 11
615.637085
 21
93.219879
 31
0.0
210
0.0
220
0.0
230
1.0
  0
LINE
  5
7F
100
AcDbEntity
  8
0
 62
     7
 48
0.36875
100
AcDbLine
 10
615.637085
 20
86.719879
 30
0.0
 11
600.887085
 21
86.719879
 31
0.0
210
0.0
220
0.0
230
1.0
  0
ARC
  5
80
100
AcDbEntity
  8
0
 62
     7
100
AcDbCircle
 10
600.887085
 20
89.969879
 30
0.0
 40
3.25
210
0.0
220
0.0
230
1.0
100
AcDbArc
 50
90.000003
 51
269.999997
  0
LINE
  5
81
100
AcDbEntity
  8
0
 62
     7
 48
0.05
100
AcDbLine
 10
587.637085
 20
114.969879
 30
0.0
 11
589.637085
 21
114.969879
 31
0.0
210
0.0
220
0.0
230
1.0
  0
LINE
  5
82
100
AcDbEntity
  8
0
 62
     7
 48
0.05
100
AcDbLine
 10
587.637085
 20
64.969879
 30
0.0
 11
589.637085
 21
64.969879
 31
0.0
210
0.0
220
0.0
230
1.0
  0
LINE
  5
83
100
AcDbEntity
  8
0
 62
     7
 48
0.05
100
AcDbLine
 10
585.637085
 20
66.969879
 30
0.0
 11
585.637085
 21
64.969879
 31
0.0
210
0.0
220
0.0
230
1.0
  0
LINE
  5
84
100
AcDbEntity
  8
0
 62
     7
 48
0.05
100
AcDbLine
 10
587.637085
 20
64.969879
 30
0.0
 11
585.637085
 21
64.969879
 31
0.0
210
0.0
220
0.0
230
1.0
  0
LINE
  5
85
100
AcDbEntity
  8
0
 62
     7
 48
0.05
100
AcDbLine
 10
587.637085
 20
66.969879
 30
0.0
 11
587.637085
 21
64.969879
 31
0.0
210
0.0
220
0.0
230
1.0
  0
LINE
  5
86
100
AcDbEntity
  8
0
 62
     7
100
AcDbLine
 10
587.637085
 20
112.969879
 30
0.0
 11
587.637085
 21
66.969879
 31
0.0
210
0.0
220
0.0
230
1.0
  0
LINE
  5
87
100
AcDbEntity
  8
0
 62
     7
 48
0.05
100
AcDbLine
 10
587.637085
 20
114.969879
 30
0.0
 11
587.637085
 21
112.969879
 31
0.0
210
0.0
220
0.0
230
1.0
  0
LINE
  5
88
100
AcDbEntity
  8
0
 62
     7
100
AcDbLine
 10
585.637085
 20
112.969879
 30
0.0
 11
585.637085
 21
66.969879
 31
0.0
210
0.0
220
0.0
230
1.0
  0
LINE
  5
89
100
AcDbEntity
  8
0
 62
     7
 48
0.05
100
AcDbLine
 10
585.637085
 20
114.969879
 30
0.0
 11
585.637085
 21
112.969879
 31
0.0
210
0.0
220
0.0
230
1.0
  0
LINE
  5
8A
100
AcDbEntity
  8
0
 62
     7
 48
0.05
100
AcDbLine
 10
587.637085
 20
114.969879
 30
0.0
 11
585.637085
 21
114.969879
 31
0.0
210
0.0
220
0.0
230
1.0
  0
LINE
  5
8B
100
AcDbEntity
  8
0
 62
     7
 48
0.49375
100
AcDbLine
 10
615.637085
 20
112.969879
 30
0.0
 11
615.637085
 21
93.219879
 31
0.0
210
0.0
220
0.0
230
1.0
  0
LINE
  5
8C
100
AcDbEntity
  8
0
 62
     7
100
AcDbLine
 10
589.637085
 20
114.969879
 30
0.0
 11
613.637085
 21
114.969879
 31
0.0
210
0.0
220
0.0
230
1.0
  0
ARC
  5
8D
100
AcDbEntity
  8
0
 62
     7
100
AcDbCircle
 10
613.637085
 20
112.969879
 30
0.0
 40
2.0
210
0.0
220
0.0
230
1.0
100
AcDbArc
 50
360.0
 51
90.000003
  0
LINE
  5
8E
100
AcDbEntity
  8
0
 62
     7
 48
0.49375
100
AcDbLine
 10
615.637085
 20
86.719879
 30
0.0
 11
615.637085
 21
66.969879
 31
0.0
210
0.0
220
0.0
230
1.0
  0
LINE
  5
8F
100
AcDbEntity
  8
0
 62
     7
100
AcDbLine
 10
589.637085
 20
64.969879
 30
0.0
 11
613.637085
 21
64.969879
 31
0.0
210
0.0
220
0.0
230
1.0
  0
ARC
  5
90
100
AcDbEntity
  8
0
 62
     7
100
AcDbCircle
 10
613.637085
 20
66.969879
 30
0.0
 40
2.0
210
0.0
220
0.0
230
1.0
100
AcDbArc
 50
269.999997
 51
360.0
  0
LINE
  5
91
100
AcDbEntity
  8
0
 62
     7
 48
0.2
100
AcDbLine
 10
486.937073
 20
202.469879
 30
0.0
 11
478.937073
 21
202.469879
 31
0.0
210
0.0
220
0.0
230
1.0
  0
LINE
  5
92
100
AcDbEntity
  8
0
 62
     7
 48
0.2
100
AcDbLine
 10
486.937073
 20
197.469879
 30
0.0
 11
478.937073
 21
197.469879
 31
0.0
210
0.0
220
0.0
230
1.0
  0
ARC
  5
93
100
AcDbEntity
  8
0
 62
     7
100
AcDbCircle
 10
478.937073
 20
180.469879
 30
0.0
 40
22.0
210
0.0
220
0.0
230
1.0
100
AcDbArc
 50
90.000003
 51
269.999997
  0
ARC
  5
94
100
AcDbEntity
  8
0
 62
     7
100
AcDbCircle
 10
478.937073
 20
180.469879
 30
0.0
 40
17.0
210
0.0
220
0.0
230
1.0
100
AcDbArc
 50
90.000003
 51
269.999997
  0
LINE
  5
95
100
AcDbEntity
  8
0
 62
     7
 48
0.205
100
AcDbLine
 10
487.137085
 20
158.469879
 30
0.0
 11
478.937073
 21
158.469879
 31
0.0
210
0.0
220
0.0
230
1.0
  0
LINE
  5
96
100
AcDbEntity
  8
0
 62
     7
 48
0.205
100
AcDbLine
 10
487.137085
 20
163.469879
 30
0.0
 11
478.937073
 21
163.469879
 31
0.0
210
0.0
220
0.0
230
1.0
  0
ARC
  5
97
100
AcDbEntity
  8
0
 62
     7
100
AcDbCircle
 10
487.137085
 20
140.969879
 30
0.0
 40
17.5
210
0.0
220
0.0
230
1.0
100
AcDbArc
 50
0.0
 51
90.000003
  0
ARC
  5
98
100
AcDbEntity
  8
0
 62
     7
100
AcDbCircle
 10
487.137085
 20
140.969879
 30
0.0
 40
22.5
210
0.0
220
0.0
230
1.0
100
AcDbArc
 50
0.0
 51
90.000003
  0
LINE
  5
99
100
AcDbEntity
  8
0
 62
     7
 48
0.15
100
AcDbLine
 10
504.637085
 20
134.969879
 30
0.0
 11
504.637085
 21
140.969879
 31
0.0
210
0.0
220
0.0
230
1.0
  0
LINE
  5
9A
100
AcDbEntity
  8
0
 62
     7
 48
0.15
100
AcDbLine
 10
509.637085
 20
134.969879
 30
0.0
 11
509.637085
 21
140.969879
 31
0.0
210
0.0
220
0.0
230
1.0
  0
LINE
  5
9B
100
AcDbEntity
  8
0
 62
     7
 48
0.183064
100
AcDbLine
 10
503.237091
 20
134.969879
 30
0.0
 11
510.559662
 21
134.969879
 31
0.0
210
0.0
220
0.0
230
1.0
  0
LINE
  5
9C
100
AcDbEntity
  8
0
 62
     7
 48
0.011935
100
AcDbLine
 10
510.559662
 20
134.969879
 30
0.0
 11
511.037079
 21
134.969879
 31
0.0
210
0.0
220
0.0
230
1.0
  0
LINE
  5
9D
100
AcDbEntity
  8
0
 62
     7
 48
0.106088
100
AcDbLine
 10
498.650024
 20
114.969879
 30
0.0
 11
502.893555
 21
114.969879
 31
0.0
210
0.0
220
0.0
230
1.0
  0
LINE
  5
9E
100
AcDbEntity
  8
0
 62
     7
 48
0.212177
100
AcDbLine
 10
502.893555
 20
114.969879
 30
0.0
 11
511.380615
 21
114.969879
 31
0.0
210
0.0
220
0.0
230
1.0
  0
LINE
  5
9F
100
AcDbEntity
  8
0
 62
     7
 48
0.106088
100
AcDbLine
 10
511.380615
 20
114.969879
 30
0.0
 11
515.624146
 21
114.969879
 31
0.0
210
0.0
220
0.0
230
1.0
  0
LINE
  5
A0
100
AcDbEntity
  8
0
 62
     7
 48
0.405
100
AcDbLine
 10
498.650024
 20
114.969879
 30
0.0
 11
498.650024
 21
131.169876
 31
0.0
210
0.0
220
0.0
230
1.0
  0
LINE
  5
A1
100
AcDbEntity
  8
0
 62
     7
 48
0.405
100
AcDbLine
 10
502.893555
 20
114.969879
 30
0.0
 11
502.893555
 21
131.169876
 31
0.0
210
0.0
220
0.0
230
1.0
  0
LINE
  5
A2
100
AcDbEntity
  8
0
 62
     7
 48
0.106088
100
AcDbLine
 10
498.650024
 20
131.169876
 30
0.0
 11
502.893555
 21
131.169876
 31
0.0
210
0.0
220
0.0
230
1.0
  0
LINE
  5
A3
100
AcDbEntity
  8
0
 62
     7
 48
0.405
100
AcDbLine
 10
511.380615
 20
114.969879
 30
0.0
 11
511.380615
 21
131.169876
 31
0.0
210
0.0
220
0.0
230
1.0
  0
LINE
  5
A4
100
AcDbEntity
  8
0
 62
     7
 48
0.212177
100
AcDbLine
 10
502.893555
 20
131.169876
 30
0.0
 11
511.380615
 21
131.169876
 31
0.0
210
0.0
220
0.0
230
1.0
  0
LINE
  5
A5
100
AcDbEntity
  8
0
 62
     7
 48
0.405
100
AcDbLine
 10
515.624146
 20
114.969879
 30
0.0
 11
515.624146
 21
131.169876
 31
0.0
210
0.0
220
0.0
230
1.0
  0
LINE
  5
A6
100
AcDbEntity
  8
0
 62
     7
 48
0.106088
100
AcDbLine
 10
511.380615
 20
131.169876
 30
0.0
 11
515.624146
 21
131.169876
 31
0.0
210
0.0
220
0.0
230
1.0
  0
LINE
  5
A7
100
AcDbEntity
  8
0
 62
     7
 48
0.017904
100
AcDbLine
 10
486.937073
 20
194.836029
 30
0.0
 11
486.937073
 21
194.119873
 31
0.0
210
0.0
220
0.0
230
1.0
  0
LINE
  5
A8
100
AcDbEntity
  8
0
 62
     7
 48
0.274596
100
AcDbLine
 10
486.937073
 20
205.819885
 30
0.0
 11
486.937073
 21
194.836029
 31
0.0
210
0.0
220
0.0
230
1.0
  0
LINE
  5
A9
100
AcDbEntity
  8
0
 62
     7
 48
0.42715
100
AcDbLine
 10
510.937073
 20
209.069885
 30
0.0
 11
510.937073
 21
191.983887
 31
0.0
210
0.0
220
0.0
230
1.0
  0
LINE
  5
AA
100
AcDbEntity
  8
0
 62
     7
 48
0.02785
100
AcDbLine
 10
510.937073
 20
191.983887
 30
0.0
 11
510.937073
 21
190.869873
 31
0.0
210
0.0
220
0.0
230
1.0
  0
LINE
  5
AB
100
AcDbEntity
  8
0
 62
     7
 48
0.352047
100
AcDbLine
 10
492.937073
 20
207.469879
 30
0.0
 11
492.937073
 21
193.388
 31
0.0
210
0.0
220
0.0
230
1.0
  0
LINE
  5
AC
100
AcDbEntity
  8
0
 62
     7
 48
0.022953
100
AcDbLine
 10
492.937073
 20
193.388
 30
0.0
 11
492.937073
 21
192.469879
 31
0.0
210
0.0
220
0.0
230
1.0
  0
LINE
  5
AD
100
AcDbEntity
  8
0
 62
     7
 48
0.352047
100
AcDbLine
 10
501.537079
 20
207.469879
 30
0.0
 11
501.537079
 21
193.388
 31
0.0
210
0.0
220
0.0
230
1.0
  0
LINE
  5
AE
100
AcDbEntity
  8
0
 62
     7
 48
0.022953
100
AcDbLine
 10
501.537079
 20
193.388
 30
0.0
 11
501.537079
 21
192.469879
 31
0.0
210
0.0
220
0.0
230
1.0
  0
LINE
  5
AF
100
AcDbEntity
  8
0
 62
     7
 48
0.02
100
AcDbLine
 10
514.037109
 20
131.969879
 30
0.0
 11
514.037109
 21
131.169876
 31
0.0
210
0.0
220
0.0
230
1.0
  0
ARC
  5
B0
100
AcDbEntity
  8
0
 62
     7
100
AcDbCircle
 10
511.037079
 20
131.969879
 30
0.0
 40
3.0
210
0.0
220
0.0
230
1.0
100
AcDbArc
 50
360.0
 51
90.000003
  0
LINE
  5
B1
100
AcDbEntity
  8
0
 62
     7
 48
0.02
100
AcDbLine
 10
500.237091
 20
131.969879
 30
0.0
 11
500.237091
 21
131.169876
 31
0.0
210
0.0
220
0.0
230
1.0
  0
ARC
  5
B2
100
AcDbEntity
  8
0
 62
     7
100
AcDbCircle
 10
503.237091
 20
131.969879
 30
0.0
 40
3.0
210
0.0
220
0.0
230
1.0
100
AcDbArc
 50
90.000003
 51
179.999995
  0
LINE
  5
B3
100
AcDbEntity
  8
0
 62
     7
 48
0.155568
100
AcDbLine
 10
486.937073
 20
205.819885
 30
0.0
 11
492.937073
 21
207.469879
 31
0.0
210
0.0
220
0.0
230
1.0
  0
LINE
  5
B4
100
AcDbEntity
  8
0
 62
     7
 48
0.155568
100
AcDbLine
 10
486.937073
 20
194.119873
 30
0.0
 11
492.937073
 21
192.469879
 31
0.0
210
0.0
220
0.0
230
1.0
  0
ARC
  5
B5
100
AcDbEntity
  8
0
 62
     7
100
AcDbCircle
 10
497.237091
 20
214.574036
 30
0.0
 40
8.304167
210
0.0
220
0.0
230
1.0
100
AcDbArc
 50
238.814371
 51
301.185624
  0
ARC
  5
B6
100
AcDbEntity
  8
0
 62
     7
100
AcDbCircle
 10
497.237091
 20
185.365723
 30
0.0
 40
8.304167
210
0.0
220
0.0
230
1.0
100
AcDbArc
 50
58.814376
 51
121.185629
  0
LINE
  5
B7
100
AcDbEntity
  8
0
 62
     7
 48
0.235
100
AcDbLine
 10
510.937073
 20
207.469879
 30
0.0
 11
501.537079
 21
207.469879
 31
0.0
210
0.0
220
0.0
230
1.0
  0
LINE
  5
B8
100
AcDbEntity
  8
0
 62
     7
 48
0.235
100
AcDbLine
 10
510.937073
 20
192.469879
 30
0.0
 11
501.537079
 21
192.469879
 31
0.0
210
0.0
220
0.0
230
1.0
  0
LINE
  5
B9
100
AcDbEntity
  8
0
 62
     7
 48
0.275
100
AcDbLine
 10
521.937073
 20
209.069885
 30
0.0
 11
510.937073
 21
209.069885
 31
0.0
210
0.0
220
0.0
230
1.0
  0
LINE
  5
BA
100
AcDbEntity
  8
0
 62
     7
 48
0.275
100
AcDbLine
 10
521.937073
 20
190.869873
 30
0.0
 11
510.937073
 21
190.869873
 31
0.0
210
0.0
220
0.0
230
1.0
  0
LINE
  5
BB
100
AcDbEntity
  8
0
 62
     7
 48
0.495
100
AcDbLine
 10
486.937073
 20
227.469879
 30
0.0
 11
467.137085
 21
227.469879
 31
0.0
210
0.0
220
0.0
230
1.0
  0
LINE
  5
BC
100
AcDbEntity
  8
0
 62
     7
 48
0.495
100
AcDbLine
 10
486.937073
 20
222.469879
 30
0.0
 11
467.137085
 21
222.469879
 31
0.0
210
0.0
220
0.0
230
1.0
  0
ARC
  5
BD
100
AcDbEntity
  8
0
 62
     7
100
AcDbCircle
 10
467.137085
 20
199.969879
 30
0.0
 40
27.5
210
0.0
220
0.0
230
1.0
100
AcDbArc
 50
90.000003
 51
180.000005
  0
ARC
  5
BE
100
AcDbEntity
  8
0
 62
     7
100
AcDbCircle
 10
467.137085
 20
199.969879
 30
0.0
 40
22.5
210
0.0
220
0.0
230
1.0
100
AcDbArc
 50
90.000003
 51
180.000005
  0
LINE
  5
BF
100
AcDbEntity
  8
0
 62
     7
100
AcDbLine
 10
439.637085
 20
199.969879
 30
0.0
 11
439.637085
 21
176.969879
 31
0.0
210
0.0
220
0.0
230
1.0
  0
LINE
  5
C0
100
AcDbEntity
  8
0
 62
     7
100
AcDbLine
 10
444.637085
 20
199.969879
 30
0.0
 11
444.637085
 21
176.969879
 31
0.0
210
0.0
220
0.0
230
1.0
  0
ARC
  5
C1
100
AcDbEntity
  8
0
 62
     7
100
AcDbCircle
 10
467.137085
 20
176.969879
 30
0.0
 40
27.5
210
0.0
220
0.0
230
1.0
100
AcDbArc
 50
180.000005
 51
269.999997
  0
ARC
  5
C2
100
AcDbEntity
  8
0
 62
     7
100
AcDbCircle
 10
467.137085
 20
176.969879
 30
0.0
 40
22.5
210
0.0
220
0.0
230
1.0
100
AcDbArc
 50
180.000005
 51
269.999997
  0
LINE
  5
C3
100
AcDbEntity
  8
0
 62
     7
 48
0.2
100
AcDbLine
 10
475.137085
 20
149.469879
 30
0.0
 11
467.137085
 21
149.469879
 31
0.0
210
0.0
220
0.0
230
1.0
  0
LINE
  5
C4
100
AcDbEntity
  8
0
 62
     7
 48
0.2
100
AcDbLine
 10
475.137085
 20
154.469879
 30
0.0
 11
467.137085
 21
154.469879
 31
0.0
210
0.0
220
0.0
230
1.0
  0
ARC
  5
C5
100
AcDbEntity
  8
0
 62
     7
100
AcDbCircle
 10
475.137085
 20
139.969879
 30
0.0
 40
9.5
210
0.0
220
0.0
230
1.0
100
AcDbArc
 50
0.0
 51
90.000003
  0
ARC
  5
C6
100
AcDbEntity
  8
0
 62
     7
100
AcDbCircle
 10
475.137085
 20
139.969879
 30
0.0
 40
14.5
210
0.0
220
0.0
230
1.0
100
AcDbArc
 50
0.0
 51
90.000003
  0
LINE
  5
C7
100
AcDbEntity
  8
0
 62
     7
 48
0.125
100
AcDbLine
 10
484.637085
 20
134.969879
 30
0.0
 11
484.637085
 21
139.969879
 31
0.0
210
0.0
220
0.0
230
1.0
  0
LINE
  5
C8
100
AcDbEntity
  8
0
 62
     7
 48
0.125
100
AcDbLine
 10
489.637085
 20
134.969879
 30
0.0
 11
489.637085
 21
139.969879
 31
0.0
210
0.0
220
0.0
230
1.0
  0
LINE
  5
C9
100
AcDbEntity
  8
0
 62
     7
 48
0.183064
100
AcDbLine
 10
483.237091
 20
134.969879
 30
0.0
 11
490.559662
 21
134.969879
 31
0.0
210
0.0
220
0.0
230
1.0
  0
LINE
  5
CA
100
AcDbEntity
  8
0
 62
     7
 48
0.011935
100
AcDbLine
 10
490.559662
 20
134.969879
 30
0.0
 11
491.037079
 21
134.969879
 31
0.0
210
0.0
220
0.0
230
1.0
  0
LINE
  5
CB
100
AcDbEntity
  8
0
 62
     7
 48
0.106088
100
AcDbLine
 10
478.650024
 20
114.969879
 30
0.0
 11
482.893555
 21
114.969879
 31
0.0
210
0.0
220
0.0
230
1.0
  0
LINE
  5
CC
100
AcDbEntity
  8
0
 62
     7
 48
0.212177
100
AcDbLine
 10
482.893555
 20
114.969879
 30
0.0
 11
491.380615
 21
114.969879
 31
0.0
210
0.0
220
0.0
230
1.0
  0
LINE
  5
CD
100
AcDbEntity
  8
0
 62
     7
 48
0.106088
100
AcDbLine
 10
491.380615
 20
114.969879
 30
0.0
 11
495.624146
 21
114.969879
 31
0.0
210
0.0
220
0.0
230
1.0
  0
LINE
  5
CE
100
AcDbEntity
  8
0
 62
     7
 48
0.405
100
AcDbLine
 10
478.650024
 20
114.969879
 30
0.0
 11
478.650024
 21
131.169876
 31
0.0
210
0.0
220
0.0
230
1.0
  0
LINE
  5
CF
100
AcDbEntity
  8
0
 62
     7
 48
0.405
100
AcDbLine
 10
482.893555
 20
114.969879
 30
0.0
 11
482.893555
 21
131.169876
 31
0.0
210
0.0
220
0.0
230
1.0
  0
LINE
  5
D0
100
AcDbEntity
  8
0
 62
     7
 48
0.106088
100
AcDbLine
 10
478.650024
 20
131.169876
 30
0.0
 11
482.893555
 21
131.169876
 31
0.0
210
0.0
220
0.0
230
1.0
  0
LINE
  5
D1
100
AcDbEntity
  8
0
 62
     7
 48
0.405
100
AcDbLine
 10
491.380615
 20
114.969879
 30
0.0
 11
491.380615
 21
131.169876
 31
0.0
210
0.0
220
0.0
230
1.0
  0
LINE
  5
D2
100
AcDbEntity
  8
0
 62
     7
 48
0.212177
100
AcDbLine
 10
482.893555
 20
131.169876
 30
0.0
 11
491.380615
 21
131.169876
 31
0.0
210
0.0
220
0.0
230
1.0
  0
LINE
  5
D3
100
AcDbEntity
  8
0
 62
     7
 48
0.405
100
AcDbLine
 10
495.624146
 20
114.969879
 30
0.0
 11
495.624146
 21
131.169876
 31
0.0
210
0.0
220
0.0
230
1.0
  0
LINE
  5
D4
100
AcDbEntity
  8
0
 62
     7
 48
0.106088
100
AcDbLine
 10
491.380615
 20
131.169876
 30
0.0
 11
495.624146
 21
131.169876
 31
0.0
210
0.0
220
0.0
230
1.0
  0
LINE
  5
D5
100
AcDbEntity
  8
0
 62
     7
 48
0.017904
100
AcDbLine
 10
486.937073
 20
219.836029
 30
0.0
 11
486.937073
 21
219.119873
 31
0.0
210
0.0
220
0.0
230
1.0
  0
LINE
  5
D6
100
AcDbEntity
  8
0
 62
     7
 48
0.274596
100
AcDbLine
 10
486.937073
 20
230.819885
 30
0.0
 11
486.937073
 21
219.836029
 31
0.0
210
0.0
220
0.0
230
1.0
  0
LINE
  5
D7
100
AcDbEntity
  8
0
 62
     7
 48
0.42715
100
AcDbLine
 10
510.937073
 20
234.069885
 30
0.0
 11
510.937073
 21
216.983887
 31
0.0
210
0.0
220
0.0
230
1.0
  0
LINE
  5
D8
100
AcDbEntity
  8
0
 62
     7
 48
0.02785
100
AcDbLine
 10
510.937073
 20
216.983887
 30
0.0
 11
510.937073
 21
215.869873
 31
0.0
210
0.0
220
0.0
230
1.0
  0
LINE
  5
D9
100
AcDbEntity
  8
0
 62
     7
 48
0.352047
100
AcDbLine
 10
492.937073
 20
232.469879
 30
0.0
 11
492.937073
 21
218.388
 31
0.0
210
0.0
220
0.0
230
1.0
  0
LINE
  5
DA
100
AcDbEntity
  8
0
 62
     7
 48
0.022953
100
AcDbLine
 10
492.937073
 20
218.388
 30
0.0
 11
492.937073
 21
217.469879
 31
0.0
210
0.0
220
0.0
230
1.0
  0
LINE
  5
DB
100
AcDbEntity
  8
0
 62
     7
 48
0.352047
100
AcDbLine
 10
501.537079
 20
232.469879
 30
0.0
 11
501.537079
 21
218.388
 31
0.0
210
0.0
220
0.0
230
1.0
  0
LINE
  5
DC
100
AcDbEntity
  8
0
 62
     7
 48
0.022953
100
AcDbLine
 10
501.537079
 20
218.388
 30
0.0
 11
501.537079
 21
217.469879
 31
0.0
210
0.0
220
0.0
230
1.0
  0
LINE
  5
DD
100
AcDbEntity
  8
0
 62
     7
 48
0.02
100
AcDbLine
 10
494.037079
 20
131.969879
 30
0.0
 11
494.037079
 21
131.169876
 31
0.0
210
0.0
220
0.0
230
1.0
  0
ARC
  5
DE
100
AcDbEntity
  8
0
 62
     7
100
AcDbCircle
 10
491.037079
 20
131.969879
 30
0.0
 40
3.0
210
0.0
220
0.0
230
1.0
100
AcDbArc
 50
360.0
 51
90.000003
  0
LINE
  5
DF
100
AcDbEntity
  8
0
 62
     7
 48
0.02
100
AcDbLine
 10
480.237091
 20
131.969879
 30
0.0
 11
480.237091
 21
131.169876
 31
0.0
210
0.0
220
0.0
230
1.0
  0
ARC
  5
E0
100
AcDbEntity
  8
0
 62
     7
100
AcDbCircle
 10
483.237091
 20
131.969879
 30
0.0
 40
3.0
210
0.0
220
0.0
230
1.0
100
AcDbArc
 50
90.000003
 51
179.999995
  0
LINE
  5
E1
100
AcDbEntity
  8
0
 62
     7
 48
0.155568
100
AcDbLine
 10
486.937073
 20
230.819885
 30
0.0
 11
492.937073
 21
232.469879
 31
0.0
210
0.0
220
0.0
230
1.0
  0
LINE
  5
E2
100
AcDbEntity
  8
0
 62
     7
 48
0.155568
100
AcDbLine
 10
486.937073
 20
219.119873
 30
0.0
 11
492.937073
 21
217.469879
 31
0.0
210
0.0
220
0.0
230
1.0
  0
ARC
  5
E3
100
AcDbEntity
  8
0
 62
     7
100
AcDbCircle
 10
497.237091
 20
239.574036
 30
0.0
 40
8.304167
210
0.0
220
0.0
230
1.0
100
AcDbArc
 50
238.814371
 51
301.185624
  0
ARC
  5
E4
100
AcDbEntity
  8
0
 62
     7
100
AcDbCircle
 10
497.237091
 20
210.365723
 30
0.0
 40
8.304167
210
0.0
220
0.0
230
1.0
100
AcDbArc
 50
58.814376
 51
121.185629
  0
LINE
  5
E5
100
AcDbEntity
  8
0
 62
     7
 48
0.235
100
AcDbLine
 10
510.937073
 20
232.469879
 30
0.0
 11
501.537079
 21
232.469879
 31
0.0
210
0.0
220
0.0
230
1.0
  0
LINE
  5
E6
100
AcDbEntity
  8
0
 62
     7
 48
0.235
100
AcDbLine
 10
510.937073
 20
217.469879
 30
0.0
 11
501.537079
 21
217.469879
 31
0.0
210
0.0
220
0.0
230
1.0
  0
LINE
  5
E7
100
AcDbEntity
  8
0
 62
     7
 48
0.275
100
AcDbLine
 10
521.937073
 20
234.069885
 30
0.0
 11
510.937073
 21
234.069885
 31
0.0
210
0.0
220
0.0
230
1.0
  0
LINE
  5
E8
100
AcDbEntity
  8
0
 62
     7
 48
0.275
100
AcDbLine
 10
521.937073
 20
215.869873
 30
0.0
 11
510.937073
 21
215.869873
 31
0.0
210
0.0
220
0.0
230
1.0
  0
LINE
  5
E9
100
AcDbEntity
  8
0
 62
     7
 48
0.025
100
AcDbLine
 10
585.637085
 20
114.969879
 30
0.0
 11
584.637085
 21
114.969879
 31
0.0
210
0.0
220
0.0
230
1.0
  0
LINE
  5
EA
100
AcDbEntity
  8
0
 62
     7
 48
0.025
100
AcDbLine
 10
585.637085
 20
64.969879
 30
0.0
 11
584.637085
 21
64.969879
 31
0.0
210
0.0
220
0.0
230
1.0
  0
LINE
  5
EB
100
AcDbEntity
  8
0
 62
     7
100
AcDbLine
 10
585.637085
 20
114.969879
 30
0.0
 11
585.637085
 21
64.969879
 31
0.0
210
0.0
220
0.0
230
1.0
  0
LINE
  5
EC
100
AcDbEntity
  8
0
 62
     7
100
AcDbLine
 10
584.637085
 20
114.969879
 30
0.0
 11
584.637085
 21
64.969879
 31
0.0
210
0.0
220
0.0
230
1.0
  0
LINE
  5
ED
100
AcDbEntity
  8
0
 62
     7
 48
0.025
100
AcDbLine
 10
258.637085
 20
64.969879
 30
0.0
 11
259.637085
 21
64.969879
 31
0.0
210
0.0
220
0.0
230
1.0
  0
LINE
  5
EE
100
AcDbEntity
  8
0
 62
     7
 48
0.025
100
AcDbLine
 10
258.637085
 20
114.969879
 30
0.0
 11
259.637085
 21
114.969879
 31
0.0
210
0.0
220
0.0
230
1.0
  0
LINE
  5
EF
100
AcDbEntity
  8
0
 62
     7
100
AcDbLine
 10
258.637085
 20
64.969879
 30
0.0
 11
258.637085
 21
114.969879
 31
0.0
210
0.0
220
0.0
230
1.0
  0
LINE
  5
F0
100
AcDbEntity
  8
0
 62
     7
100
AcDbLine
 10
259.637085
 20
64.969879
 30
0.0
 11
259.637085
 21
114.969879
 31
0.0
210
0.0
220
0.0
230
1.0
  0
LINE
  5
F1
100
AcDbEntity
  8
0
 62
     7
 48
0.025
100
AcDbLine
 10
576.637085
 20
786.969849
 30
0.0
 11
576.637085
 21
787.969849
 31
0.0
210
0.0
220
0.0
230
1.0
  0
LINE
  5
F2
100
AcDbEntity
  8
0
 62
     7
 48
0.025
100
AcDbLine
 10
526.637085
 20
786.969849
 30
0.0
 11
526.637085
 21
787.969849
 31
0.0
210
0.0
220
0.0
230
1.0
  0
LINE
  5
F3
100
AcDbEntity
  8
0
 62
     7
100
AcDbLine
 10
576.637085
 20
786.969849
 30
0.0
 11
526.637085
 21
786.969849
 31
0.0
210
0.0
220
0.0
230
1.0
  0
LINE
  5
F4
100
AcDbEntity
  8
0
 62
     7
100
AcDbLine
 10
576.637085
 20
787.969849
 30
0.0
 11
526.637085
 21
787.969849
 31
0.0
210
0.0
220
0.0
230
1.0
  0
LINE
  5
F5
100
AcDbEntity
  8
0
 62
     7
 48
0.025
100
AcDbLine
 10
576.637085
 20
63.969879
 30
0.0
 11
576.637085
 21
64.969879
 31
0.0
210
0.0
220
0.0
230
1.0
  0
LINE
  5
F6
100
AcDbEntity
  8
0
 62
     7
 48
0.025
100
AcDbLine
 10
526.637085
 20
63.969879
 30
0.0
 11
526.637085
 21
64.969879
 31
0.0
210
0.0
220
0.0
230
1.0
  0
LINE
  5
F7
100
AcDbEntity
  8
0
 62
     7
100
AcDbLine
 10
576.637085
 20
63.969879
 30
0.0
 11
526.637085
 21
63.969879
 31
0.0
210
0.0
220
0.0
230
1.0
  0
LINE
  5
F8
100
AcDbEntity
  8
0
 62
     7
100
AcDbLine
 10
576.637085
 20
64.969879
 30
0.0
 11
526.637085
 21
64.969879
 31
0.0
210
0.0
220
0.0
230
1.0
  0
LINE
  5
F9
100
AcDbEntity
  8
0
 62
     7
100
AcDbLine
 10
62.42157
 20
299.969879
 30
0.0
 11
102.42157
 21
299.969879
 31
0.0
210
0.0
220
0.0
230
1.0
  0
LINE
  5
FA
100
AcDbEntity
  8
0
 62
     7
100
AcDbLine
 10
62.42157
 20
184.969879
 30
0.0
 11
62.42157
 21
299.969879
 31
0.0
210
0.0
220
0.0
230
1.0
  0
LINE
  5
FB
100
AcDbEntity
  8
0
 62
     7
 48
0.437499
100
AcDbLine
 10
79.921524
 20
184.969879
 30
0.0
 11
62.42157
 21
184.969879
 31
0.0
210
0.0
220
0.0
230
1.0
  0
LINE
  5
FC
100
AcDbEntity
  8
0
 62
     7
 48
0.437501
100
AcDbLine
 10
102.42157
 20
184.969879
 30
0.0
 11
84.921524
 21
184.969879
 31
0.0
210
0.0
220
0.0
230
1.0
  0
LINE
  5
FD
100
AcDbEntity
  8
0
 62
     7
100
AcDbLine
 10
102.42157
 20
299.969879
 30
0.0
 11
102.42157
 21
184.969879
 31
0.0
210
0.0
220
0.0
230
1.0
  0
CIRCLE
  5
FE
100
AcDbEntity
  8
0
 62
     7
100
AcDbCircle
 10
67.371567
 20
294.419861
 30
0.0
 40
2.25
210
0.0
220
0.0
230
1.0
  0
CIRCLE
  5
FF
100
AcDbEntity
  8
0
 62
     7
100
AcDbCircle
 10
97.471573
 20
294.419861
 30
0.0
 40
2.25
210
0.0
220
0.0
230
1.0
  0
CIRCLE
  5
100
100
AcDbEntity
  8
0
 62
     7
100
AcDbCircle
 10
97.471573
 20
242.469879
 30
0.0
 40
2.25
210
0.0
220
0.0
230
1.0
  0
CIRCLE
  5
101
100
AcDbEntity
  8
0
 62
     7
100
AcDbCircle
 10
67.371567
 20
242.469879
 30
0.0
 40
2.25
210
0.0
220
0.0
230
1.0
  0
CIRCLE
  5
102
100
AcDbEntity
  8
0
 62
     7
100
AcDbCircle
 10
97.471573
 20
190.519882
 30
0.0
 40
2.25
210
0.0
220
0.0
230
1.0
  0
CIRCLE
  5
103
100
AcDbEntity
  8
0
 62
     7
100
AcDbCircle
 10
67.371567
 20
190.519882
 30
0.0
 40
2.25
210
0.0
220
0.0
230
1.0
  0
LINE
  5
104
100
AcDbEntity
  8
0
 62
     7
 48
0.086167
100
AcDbLine
 10
76.474861
 20
189.669876
 30
0.0
 11
79.921532
 21
189.669876
 31
0.0
210
0.0
220
0.0
230
1.0
  0
LINE
  5
105
100
AcDbEntity
  8
0
 62
     7
 48
0.086169
100
AcDbLine
 10
84.921532
 20
189.669876
 30
0.0
 11
88.368279
 21
189.669876
 31
0.0
210
0.0
220
0.0
230
1.0
  0
LINE
  5
106
100
AcDbEntity
  8
0
 62
     7
 48
0.297335
100
AcDbLine
 10
70.528152
 20
199.969879
 30
0.0
 11
76.474861
 21
189.669876
 31
0.0
210
0.0
220
0.0
230
1.0
  0
LINE
  5
107
100
AcDbEntity
  8
0
 62
     7
 48
0.297335
100
AcDbLine
 10
88.368279
 20
189.669876
 30
0.0
 11
94.314987
 21
199.969879
 31
0.0
210
0.0
220
0.0
230
1.0
  0
LINE
  5
108
100
AcDbEntity
  8
0
 62
     7
 48
0.297335
100
AcDbLine
 10
76.474861
 20
210.269882
 30
0.0
 11
70.528152
 21
199.969879
 31
0.0
210
0.0
220
0.0
230
1.0
  0
LINE
  5
109
100
AcDbEntity
  8
0
 62
     7
 48
0.297335
100
AcDbLine
 10
94.314987
 20
199.969879
 30
0.0
 11
88.368279
 21
210.269882
 31
0.0
210
0.0
220
0.0
230
1.0
  0
LINE
  5
10A
100
AcDbEntity
  8
0
 62
     7
 48
0.086169
100
AcDbLine
 10
88.368279
 20
210.269882
 30
0.0
 11
84.921516
 21
210.269882
 31
0.0
210
0.0
220
0.0
230
1.0
  0
LINE
  5
10B
100
AcDbEntity
  8
0
 62
     7
 48
0.086166
100
AcDbLine
 10
79.921516
 20
210.269882
 30
0.0
 11
76.474861
 21
210.269882
 31
0.0
210
0.0
220
0.0
230
1.0
  0
LINE
  5
10C
100
AcDbEntity
  8
0
 62
     7
 48
0.086166
100
AcDbLine
 10
76.474861
 20
214.669876
 30
0.0
 11
79.921516
 21
214.669876
 31
0.0
210
0.0
220
0.0
230
1.0
  0
LINE
  5
10D
100
AcDbEntity
  8
0
 62
     7
 48
0.086169
100
AcDbLine
 10
84.921516
 20
214.669876
 30
0.0
 11
88.368279
 21
214.669876
 31
0.0
210
0.0
220
0.0
230
1.0
  0
LINE
  5
10E
100
AcDbEntity
  8
0
 62
     7
 48
0.297335
100
AcDbLine
 10
70.528152
 20
224.969879
 30
0.0
 11
76.474861
 21
214.669876
 31
0.0
210
0.0
220
0.0
230
1.0
  0
LINE
  5
10F
100
AcDbEntity
  8
0
 62
     7
 48
0.297335
100
AcDbLine
 10
88.368279
 20
214.669876
 30
0.0
 11
94.314987
 21
224.969879
 31
0.0
210
0.0
220
0.0
230
1.0
  0
LINE
  5
110
100
AcDbEntity
  8
0
 62
     7
 48
0.297335
100
AcDbLine
 10
76.474861
 20
235.269882
 30
0.0
 11
70.528152
 21
224.969879
 31
0.0
210
0.0
220
0.0
230
1.0
  0
LINE
  5
111
100
AcDbEntity
  8
0
 62
     7
 48
0.297335
100
AcDbLine
 10
94.314987
 20
224.969879
 30
0.0
 11
88.368279
 21
235.269882
 31
0.0
210
0.0
220
0.0
230
1.0
  0
LINE
  5
112
100
AcDbEntity
  8
0
 62
     7
 48
0.297335
100
AcDbLine
 10
88.368279
 20
235.269882
 30
0.0
 11
76.474861
 21
235.269882
 31
0.0
210
0.0
220
0.0
230
1.0
  0
CIRCLE
  5
113
100
AcDbEntity
  8
0
 62
     7
100
AcDbCircle
 10
82.42157
 20
249.969879
 30
0.0
 40
5.9
210
0.0
220
0.0
230
1.0
  0
CIRCLE
  5
114
100
AcDbEntity
  8
0
 62
     7
100
AcDbCircle
 10
82.42157
 20
249.969879
 30
0.0
 40
7.0
210
0.0
220
0.0
230
1.0
  0
LINE
  5
115
100
AcDbEntity
  8
0
 62
     7
 48
0.015486
100
AcDbLine
 10
85.875893
 20
254.752945
 30
0.0
 11
85.566185
 21
254.216507
 31
0.0
210
0.0
220
0.0
230
1.0
  0
LINE
  5
116
100
AcDbEntity
  8
0
 62
     7
 48
0.015485
100
AcDbLine
 10
84.526955
 20
254.816513
 30
0.0
 11
84.836662
 21
255.352936
 31
0.0
210
0.0
220
0.0
230
1.0
  0
ARC
  5
117
100
AcDbEntity
  8
0
 62
     7
100
AcDbCircle
 10
85.04657
 20
254.51651
 30
0.0
 40
0.6
210
0.0
220
0.0
230
1.0
100
AcDbArc
 50
149.999997
 51
329.999999
  0
CIRCLE
  5
118
100
AcDbEntity
  8
0
 62
     7
100
AcDbCircle
 10
84.221573
 20
253.08757
 30
0.0
 40
0.4
210
0.0
220
0.0
230
1.0
  0
CIRCLE
  5
119
100
AcDbEntity
  8
0
 62
     7
100
AcDbCircle
 10
82.42157
 20
249.969879
 30
0.0
 40
0.4
210
0.0
220
0.0
230
1.0
  0
CIRCLE
  5
11A
100
AcDbEntity
  8
0
 62
     7
100
AcDbCircle
 10
85.981361
 20
250.506424
 30
0.0
 40
0.4
210
0.0
220
0.0
230
1.0
  0
CIRCLE
  5
11B
100
AcDbEntity
  8
0
 62
     7
100
AcDbCircle
 10
85.060555
 20
247.521255
 30
0.0
 40
0.4
210
0.0
220
0.0
230
1.0
  0
CIRCLE
  5
11C
100
AcDbEntity
  8
0
 62
     7
100
AcDbCircle
 10
82.152542
 20
246.379944
 30
0.0
 40
0.4
210
0.0
220
0.0
230
1.0
  0
CIRCLE
  5
11D
100
AcDbEntity
  8
0
 62
     7
100
AcDbCircle
 10
79.447113
 20
247.941925
 30
0.0
 40
0.4
210
0.0
220
0.0
230
1.0
  0
CIRCLE
  5
11E
100
AcDbEntity
  8
0
 62
     7
100
AcDbCircle
 10
78.981506
 20
251.030991
 30
0.0
 40
0.4
210
0.0
220
0.0
230
1.0
  0
CIRCLE
  5
11F
100
AcDbEntity
  8
0
 62
     7
100
AcDbCircle
 10
81.106339
 20
253.32103
 30
0.0
 40
0.4
210
0.0
220
0.0
230
1.0
  0
LINE
  5
120
100
AcDbEntity
  8
0
 62
     7
 48
0.274241
100
AcDbLine
 10
87.906395
 20
240.469879
 30
0.0
 11
93.39122
 21
249.969879
 31
0.0
210
0.0
220
0.0
230
1.0
  0
LINE
  5
121
100
AcDbEntity
  8
0
 62
     7
 48
0.274241
100
AcDbLine
 10
93.39122
 20
249.969879
 30
0.0
 11
87.906395
 21
259.469879
 31
0.0
210
0.0
220
0.0
230
1.0
  0
LINE
  5
122
100
AcDbEntity
  8
0
 62
     7
 48
0.274241
100
AcDbLine
 10
87.906395
 20
259.469879
 30
0.0
 11
76.936745
 21
259.469879
 31
0.0
210
0.0
220
0.0
230
1.0
  0
LINE
  5
123
100
AcDbEntity
  8
0
 62
     7
 48
0.274241
100
AcDbLine
 10
76.936745
 20
259.469879
 30
0.0
 11
71.451912
 21
249.969879
 31
0.0
210
0.0
220
0.0
230
1.0
  0
LINE
  5
124
100
AcDbEntity
  8
0
 62
     7
 48
0.274241
100
AcDbLine
 10
71.451912
 20
249.969879
 30
0.0
 11
76.936745
 21
240.469879
 31
0.0
210
0.0
220
0.0
230
1.0
  0
LINE
  5
125
100
AcDbEntity
  8
0
 62
     7
 48
0.274241
100
AcDbLine
 10
76.936745
 20
240.469879
 30
0.0
 11
87.906395
 21
240.469879
 31
0.0
210
0.0
220
0.0
230
1.0
  0
LINE
  5
126
100
AcDbEntity
  8
0
 62
     7
100
AcDbLine
 10
57.42157
 20
114.969879
 30
0.0
 11
57.42157
 21
786.969849
 31
0.0
210
0.0
220
0.0
230
1.0
  0
LINE
  5
127
100
AcDbEntity
  8
0
 62
     7
100
AcDbLine
 10
107.42157
 20
114.969879
 30
0.0
 11
107.42157
 21
786.969849
 31
0.0
210
0.0
220
0.0
230
1.0
  0
LINE
  5
128
100
AcDbEntity
  8
0
 62
     7
100
AcDbLine
 10
57.42157
 20
786.969849
 30
0.0
 11
107.42157
 21
786.969849
 31
0.0
210
0.0
220
0.0
230
1.0
  0
ARC
  5
129
100
AcDbEntity
  8
0
 62
     7
100
AcDbCircle
 10
54.42157
 20
59.969879
 30
0.0
 40
4.0
210
0.0
220
0.0
230
1.0
100
AcDbArc
 50
90.000003
 51
180.000005
  0
ARC
  5
12A
100
AcDbEntity
  8
0
 62
     7
100
AcDbCircle
 10
54.42157
 20
59.969879
 30
0.0
 40
2.0
210
0.0
220
0.0
230
1.0
100
AcDbArc
 50
90.000003
 51
180.000005
  0
LINE
  5
12B
100
AcDbEntity
  8
0
 62
     7
 48
0.032331
100
AcDbLine
 10
106.714828
 20
63.969879
 30
0.0
 11
105.42157
 21
63.969879
 31
0.0
210
0.0
220
0.0
230
1.0
  0
LINE
  5
12C
100
AcDbEntity
  8
0
 62
     7
 48
0.05
100
AcDbLine
 10
107.42157
 20
61.969879
 30
0.0
 11
105.42157
 21
61.969879
 31
0.0
210
0.0
220
0.0
230
1.0
  0
LINE
  5
12D
100
AcDbEntity
  8
0
 62
     7
 48
0.05
100
AcDbLine
 10
107.42157
 20
61.969879
 30
0.0
 11
107.42157
 21
63.969879
 31
0.0
210
0.0
220
0.0
230
1.0
  0
LINE
  5
12E
100
AcDbEntity
  8
0
 62
     7
100
AcDbLine
 10
105.42157
 20
61.969879
 30
0.0
 11
54.42157
 21
61.969879
 31
0.0
210
0.0
220
0.0
230
1.0
  0
LINE
  5
12F
100
AcDbEntity
  8
0
 62
     7
100
AcDbLine
 10
105.42157
 20
63.969879
 30
0.0
 11
54.42157
 21
63.969879
 31
0.0
210
0.0
220
0.0
230
1.0
  0
LINE
  5
130
100
AcDbEntity
  8
0
 62
     7
 48
0.05
100
AcDbLine
 10
50.42157
 20
33.969879
 30
0.0
 11
52.42157
 21
33.969879
 31
0.0
210
0.0
220
0.0
230
1.0
  0
LINE
  5
131
100
AcDbEntity
  8
0
 62
     7
100
AcDbLine
 10
52.42157
 20
59.969879
 30
0.0
 11
52.42157
 21
35.969879
 31
0.0
210
0.0
220
0.0
230
1.0
  0
LINE
  5
132
100
AcDbEntity
  8
0
 62
     7
100
AcDbLine
 10
50.42157
 20
59.969879
 30
0.0
 11
50.42157
 21
35.969879
 31
0.0
210
0.0
220
0.0
230
1.0
  0
LINE
  5
133
100
AcDbEntity
  8
0
 62
     7
 48
0.05
100
AcDbLine
 10
50.42157
 20
35.969879
 30
0.0
 11
50.42157
 21
33.969879
 31
0.0
210
0.0
220
0.0
230
1.0
  0
LINE
  5
134
100
AcDbEntity
  8
0
 62
     7
 48
0.05
100
AcDbLine
 10
52.42157
 20
35.969879
 30
0.0
 11
52.42157
 21
33.969879
 31
0.0
210
0.0
220
0.0
230
1.0
  0
ARC
  5
135
100
AcDbEntity
  8
0
 62
     7
100
AcDbCircle
 10
54.42157
 20
791.969849
 30
0.0
 40
4.0
210
0.0
220
0.0
230
1.0
100
AcDbArc
 50
180.000005
 51
269.999997
  0
ARC
  5
136
100
AcDbEntity
  8
0
 62
     7
100
AcDbCircle
 10
54.42157
 20
791.969849
 30
0.0
 40
2.0
210
0.0
220
0.0
230
1.0
100
AcDbArc
 50
180.000005
 51
269.999997
  0
LINE
  5
137
100
AcDbEntity
  8
0
 62
     7
100
AcDbLine
 10
105.42157
 20
789.969849
 30
0.0
 11
54.42157
 21
789.969849
 31
0.0
210
0.0
220
0.0
230
1.0
  0
LINE
  5
138
100
AcDbEntity
  8
0
 62
     7
 48
0.05
100
AcDbLine
 10
105.42157
 20
789.969849
 30
0.0
 11
107.42157
 21
789.969849
 31
0.0
210
0.0
220
0.0
230
1.0
  0
LINE
  5
139
100
AcDbEntity
  8
0
 62
     7
100
AcDbLine
 10
105.42157
 20
787.969849
 30
0.0
 11
54.42157
 21
787.969849
 31
0.0
210
0.0
220
0.0
230
1.0
  0
LINE
  5
13A
100
AcDbEntity
  8
0
 62
     7
 48
0.028137
100
AcDbLine
 10
106.296074
 20
787.969849
 30
0.0
 11
107.42157
 21
787.969849
 31
0.0
210
0.0
220
0.0
230
1.0
  0
LINE
  5
13B
100
AcDbEntity
  8
0
 62
     7
 48
0.05
100
AcDbLine
 10
107.42157
 20
789.969849
 30
0.0
 11
107.42157
 21
787.969849
 31
0.0
210
0.0
220
0.0
230
1.0
  0
LINE
  5
13C
100
AcDbEntity
  8
0
 62
     7
 48
0.05
100
AcDbLine
 10
50.42157
 20
817.969849
 30
0.0
 11
52.42157
 21
817.969849
 31
0.0
210
0.0
220
0.0
230
1.0
  0
LINE
  5
13D
100
AcDbEntity
  8
0
 62
     7
100
AcDbLine
 10
52.42157
 20
791.969849
 30
0.0
 11
52.42157
 21
815.969849
 31
0.0
210
0.0
220
0.0
230
1.0
  0
LINE
  5
13E
100
AcDbEntity
  8
0
 62
     7
100
AcDbLine
 10
50.42157
 20
791.969849
 30
0.0
 11
50.42157
 21
815.969849
 31
0.0
210
0.0
220
0.0
230
1.0
  0
LINE
  5
13F
100
AcDbEntity
  8
0
 62
     7
 48
0.05
100
AcDbLine
 10
52.42157
 20
817.969849
 30
0.0
 11
52.42157
 21
815.969849
 31
0.0
210
0.0
220
0.0
230
1.0
  0
LINE
  5
140
100
AcDbEntity
  8
0
 62
     7
 48
0.05
100
AcDbLine
 10
50.42157
 20
817.969849
 30
0.0
 11
50.42157
 21
815.969849
 31
0.0
210
0.0
220
0.0
230
1.0
  0
CIRCLE
  5
141
100
AcDbEntity
  8
0
 62
     7
100
AcDbCircle
 10
82.42157
 20
72.529877
 30
0.0
 40
2.5
210
0.0
220
0.0
230
1.0
  0
LINE
  5
142
100
AcDbEntity
  8
0
 62
     7
 48
0.05
100
AcDbLine
 10
52.42157
 20
86.719879
 30
0.0
 11
50.42157
 21
86.719879
 31
0.0
210
0.0
220
0.0
230
1.0
  0
LINE
  5
143
100
AcDbEntity
  8
0
 62
     7
 48
0.05
100
AcDbLine
 10
52.42157
 20
93.219879
 30
0.0
 11
50.42157
 21
93.219879
 31
0.0
210
0.0
220
0.0
230
1.0
  0
LINE
  5
144
100
AcDbEntity
  8
0
 62
     7
 48
0.1625
100
AcDbLine
 10
50.42157
 20
93.219879
 30
0.0
 11
50.42157
 21
86.719879
 31
0.0
210
0.0
220
0.0
230
1.0
  0
LINE
  5
145
100
AcDbEntity
  8
0
 62
     7
 48
0.1625
100
AcDbLine
 10
52.42157
 20
86.719879
 30
0.0
 11
52.42157
 21
93.219879
 31
0.0
210
0.0
220
0.0
230
1.0
  0
CIRCLE
  5
146
100
AcDbEntity
  8
0
 62
     7
100
AcDbCircle
 10
82.42157
 20
107.409882
 30
0.0
 40
2.5
210
0.0
220
0.0
230
1.0
  0
LINE
  5
147
100
AcDbEntity
  8
0
 62
     7
 48
0.05
100
AcDbLine
 10
54.42157
 20
64.969879
 30
0.0
 11
52.42157
 21
64.969879
 31
0.0
210
0.0
220
0.0
230
1.0
  0
LINE
  5
148
100
AcDbEntity
  8
0
 62
     7
 48
0.05
100
AcDbLine
 10
54.42157
 20
114.969879
 30
0.0
 11
52.42157
 21
114.969879
 31
0.0
210
0.0
220
0.0
230
1.0
  0
ARC
  5
149
100
AcDbEntity
  8
0
 62
     7
100
AcDbCircle
 10
105.42157
 20
112.969879
 30
0.0
 40
2.0
210
0.0
220
0.0
230
1.0
100
AcDbArc
 50
0.0
 51
90.000003
  0
LINE
  5
14A
100
AcDbEntity
  8
0
 62
     7
100
AcDbLine
 10
105.42157
 20
64.969879
 30
0.0
 11
54.42157
 21
64.969879
 31
0.0
210
0.0
220
0.0
230
1.0
  0
LINE
  5
14B
100
AcDbEntity
  8
0
 62
     7
100
AcDbLine
 10
105.42157
 20
114.969879
 30
0.0
 11
54.42157
 21
114.969879
 31
0.0
210
0.0
220
0.0
230
1.0
  0
LINE
  5
14C
100
AcDbEntity
  8
0
 62
     7
100
AcDbLine
 10
107.42157
 20
66.969879
 30
0.0
 11
107.42157
 21
112.969879
 31
0.0
210
0.0
220
0.0
230
1.0
  0
ARC
  5
14D
100
AcDbEntity
  8
0
 62
     7
100
AcDbCircle
 10
105.42157
 20
66.969879
 30
0.0
 40
2.0
210
0.0
220
0.0
230
1.0
100
AcDbArc
 50
269.999997
 51
360.0
  0
LINE
  5
14E
100
AcDbEntity
  8
0
 62
     7
 48
0.49375
100
AcDbLine
 10
52.42157
 20
66.969879
 30
0.0
 11
52.42157
 21
86.719879
 31
0.0
210
0.0
220
0.0
230
1.0
  0
LINE
  5
14F
100
AcDbEntity
  8
0
 62
     7
 48
0.49375
100
AcDbLine
 10
50.42157
 20
66.969879
 30
0.0
 11
50.42157
 21
86.719879
 31
0.0
210
0.0
220
0.0
230
1.0
  0
LINE
  5
150
100
AcDbEntity
  8
0
 62
     7
 48
0.05
100
AcDbLine
 10
50.42157
 20
64.969879
 30
0.0
 11
52.42157
 21
64.969879
 31
0.0
210
0.0
220
0.0
230
1.0
  0
LINE
  5
151
100
AcDbEntity
  8
0
 62
     7
 48
0.05
100
AcDbLine
 10
52.42157
 20
66.969879
 30
0.0
 11
52.42157
 21
64.969879
 31
0.0
210
0.0
220
0.0
230
1.0
  0
LINE
  5
152
100
AcDbEntity
  8
0
 62
     7
 48
0.05
100
AcDbLine
 10
50.42157
 20
66.969879
 30
0.0
 11
50.42157
 21
64.969879
 31
0.0
210
0.0
220
0.0
230
1.0
  0
LINE
  5
153
100
AcDbEntity
  8
0
 62
     7
 48
0.49375
100
AcDbLine
 10
50.42157
 20
93.219879
 30
0.0
 11
50.42157
 21
112.969879
 31
0.0
210
0.0
220
0.0
230
1.0
  0
LINE
  5
154
100
AcDbEntity
  8
0
 62
     7
 48
0.49375
100
AcDbLine
 10
52.42157
 20
93.219879
 30
0.0
 11
52.42157
 21
112.969879
 31
0.0
210
0.0
220
0.0
230
1.0
  0
LINE
  5
155
100
AcDbEntity
  8
0
 62
     7
 48
0.05
100
AcDbLine
 10
50.42157
 20
114.969879
 30
0.0
 11
52.42157
 21
114.969879
 31
0.0
210
0.0
220
0.0
230
1.0
  0
LINE
  5
156
100
AcDbEntity
  8
0
 62
     7
 48
0.05
100
AcDbLine
 10
50.42157
 20
114.969879
 30
0.0
 11
50.42157
 21
112.969879
 31
0.0
210
0.0
220
0.0
230
1.0
  0
LINE
  5
157
100
AcDbEntity
  8
0
 62
     7
 48
0.05
100
AcDbLine
 10
52.42157
 20
114.969879
 30
0.0
 11
52.42157
 21
112.969879
 31
0.0
210
0.0
220
0.0
230
1.0
  0
LINE
  5
158
100
AcDbEntity
  8
0
 62
     7
 48
0.05
100
AcDbLine
 10
107.42157
 20
64.969879
 30
0.0
 11
107.42157
 21
66.969879
 31
0.0
210
0.0
220
0.0
230
1.0
  0
LINE
  5
159
100
AcDbEntity
  8
0
 62
     7
 48
0.05
100
AcDbLine
 10
107.42157
 20
114.969879
 30
0.0
 11
105.42157
 21
114.969879
 31
0.0
210
0.0
220
0.0
230
1.0
  0
LINE
  5
15A
100
AcDbEntity
  8
0
 62
     7
 48
0.05
100
AcDbLine
 10
107.42157
 20
112.969879
 30
0.0
 11
107.42157
 21
114.969879
 31
0.0
210
0.0
220
0.0
230
1.0
  0
ARC
  5
15B
100
AcDbEntity
  8
0
 62
     7
100
AcDbCircle
 10
82.42157
 20
199.969879
 30
0.0
 40
2.5
210
0.0
220
0.0
230
1.0
100
AcDbArc
 50
0.0
 51
0.256475
  0
ARC
  5
15C
100
AcDbEntity
  8
0
 62
     7
100
AcDbCircle
 10
82.42157
 20
199.969879
 30
0.0
 40
5.85
210
0.0
220
0.0
230
1.0
100
AcDbArc
 50
115.299535
 51
244.700314
  0
ARC
  5
15D
100
AcDbEntity
  8
0
 62
     7
100
AcDbCircle
 10
82.42157
 20
199.969879
 30
0.0
 40
5.85
210
0.0
220
0.0
230
1.0
100
AcDbArc
 50
295.299496
 51
64.70047
  0
ARC
  5
15E
100
AcDbEntity
  8
0
 62
     7
100
AcDbCircle
 10
82.42157
 20
199.969879
 30
0.0
 40
9.1
210
0.0
220
0.0
230
1.0
100
AcDbArc
 50
285.945621
 51
74.054379
  0
ARC
  5
15F
100
AcDbEntity
  8
0
 62
     7
100
AcDbCircle
 10
82.42157
 20
199.969879
 30
0.0
 40
9.1
210
0.0
220
0.0
230
1.0
100
AcDbArc
 50
105.945667
 51
254.054142
  0
ARC
  5
160
100
AcDbEntity
  8
0
 62
     7
100
AcDbCircle
 10
82.42157
 20
199.969879
 30
0.0
 40
7.5
210
0.0
220
0.0
230
1.0
100
AcDbArc
 50
289.471193
 51
70.528807
  0
ARC
  5
161
100
AcDbEntity
  8
0
 62
     7
100
AcDbCircle
 10
82.42157
 20
199.969879
 30
0.0
 40
7.5
210
0.0
220
0.0
230
1.0
100
AcDbArc
 50
109.471253
 51
250.528617
  0
ARC
  5
162
100
AcDbEntity
  8
0
 62
     7
100
AcDbCircle
 10
82.42157
 20
199.969879
 30
0.0
 40
7.5
210
0.0
220
0.0
230
1.0
100
AcDbArc
 50
298.647887
 51
70.528813
  0
ARC
  5
163
100
AcDbEntity
  8
0
 62
     7
100
AcDbCircle
 10
82.42157
 20
199.969879
 30
0.0
 40
7.5
210
0.0
220
0.0
230
1.0
100
AcDbArc
 50
109.47126
 51
118.647885
  0
LINE
  5
164
100
AcDbEntity
  8
0
 62
     7
100
AcDbLine
 10
84.92157
 20
160.969879
 30
0.0
 11
84.92157
 21
199.969879
 31
0.0
210
0.0
220
0.0
230
1.0
  0
LINE
  5
165
100
AcDbEntity
  8
0
 62
     7
100
AcDbLine
 10
84.92157
 20
160.969879
 30
0.0
 11
84.92157
 21
140.969879
 31
0.0
210
0.0
220
0.0
230
1.0
  0
LINE
  5
166
100
AcDbEntity
  8
0
 62
     7
 48
0.15
100
AcDbLine
 10
84.92157
 20
134.969879
 30
0.0
 11
84.92157
 21
140.969879
 31
0.0
210
0.0
220
0.0
230
1.0
  0
ARC
  5
167
100
AcDbEntity
  8
0
 62
     7
100
AcDbCircle
 10
78.521568
 20
131.969879
 30
0.0
 40
3.0
210
0.0
220
0.0
230
1.0
100
AcDbArc
 50
90.000003
 51
179.999995
  0
LINE
  5
168
100
AcDbEntity
  8
0
 62
     7
 48
0.02
100
AcDbLine
 10
89.321571
 20
131.969879
 30
0.0
 11
89.321571
 21
131.169876
 31
0.0
210
0.0
220
0.0
230
1.0
  0
ARC
  5
169
100
AcDbEntity
  8
0
 62
     7
100
AcDbCircle
 10
86.321571
 20
131.969879
 30
0.0
 40
3.0
210
0.0
220
0.0
230
1.0
100
AcDbArc
 50
360.0
 51
90.000003
  0
ARC
  5
16A
100
AcDbEntity
  8
0
 62
     7
100
AcDbCircle
 10
82.42157
 20
224.969879
 30
0.0
 40
2.5
210
0.0
220
0.0
230
1.0
100
AcDbArc
 50
0.0
 51
180.000005
  0
ARC
  5
16B
100
AcDbEntity
  8
0
 62
     7
100
AcDbCircle
 10
82.42157
 20
151.969879
 30
0.0
 40
2.5
210
0.0
220
0.0
230
1.0
100
AcDbArc
 50
180.000005
 51
360.0
  0
LINE
  5
16C
100
AcDbEntity
  8
0
 62
     7
 48
0.144244
100
AcDbLine
 10
80.551811
 20
134.969879
 30
0.0
 11
86.321571
 21
134.969879
 31
0.0
210
0.0
220
0.0
230
1.0
  0
LINE
  5
16D
100
AcDbEntity
  8
0
 62
     7
 48
0.050756
100
AcDbLine
 10
78.521568
 20
134.969879
 30
0.0
 11
80.551811
 21
134.969879
 31
0.0
210
0.0
220
0.0
230
1.0
  0
LINE
  5
16E
100
AcDbEntity
  8
0
 62
     7
 48
0.405
100
AcDbLine
 10
75.071571
 20
114.969879
 30
0.0
 11
75.071571
 21
131.169876
 31
0.0
210
0.0
220
0.0
230
1.0
  0
LINE
  5
16F
100
AcDbEntity
  8
0
 62
     7
 48
0.405
100
AcDbLine
 10
82.42157
 20
114.969879
 30
0.0
 11
82.42157
 21
131.169876
 31
0.0
210
0.0
220
0.0
230
1.0
  0
LINE
  5
170
100
AcDbEntity
  8
0
 62
     7
 48
0.18375
100
AcDbLine
 10
75.071571
 20
131.169876
 30
0.0
 11
82.42157
 21
131.169876
 31
0.0
210
0.0
220
0.0
230
1.0
  0
LINE
  5
171
100
AcDbEntity
  8
0
 62
     7
 48
0.405
100
AcDbLine
 10
89.771568
 20
114.969879
 30
0.0
 11
89.771568
 21
131.169876
 31
0.0
210
0.0
220
0.0
230
1.0
  0
LINE
  5
172
100
AcDbEntity
  8
0
 62
     7
 48
0.18375
100
AcDbLine
 10
82.42157
 20
131.169876
 30
0.0
 11
89.771568
 21
131.169876
 31
0.0
210
0.0
220
0.0
230
1.0
  0
ARC
  5
173
100
AcDbEntity
  8
0
 62
     7
100
AcDbCircle
 10
82.42157
 20
224.969879
 30
0.0
 40
5.85
210
0.0
220
0.0
230
1.0
100
AcDbArc
 50
298.647887
 51
244.700451
  0
ARC
  5
174
100
AcDbEntity
  8
0
 62
     7
100
AcDbCircle
 10
82.42157
 20
224.969879
 30
0.0
 40
5.85
210
0.0
220
0.0
230
1.0
100
AcDbArc
 50
295.299455
 51
298.647887
  0
ARC
  5
175
100
AcDbEntity
  8
0
 62
     7
100
AcDbCircle
 10
82.42157
 20
224.969879
 30
0.0
 40
9.1
210
0.0
220
0.0
230
1.0
100
AcDbArc
 50
285.9456
 51
254.054354
  0
ARC
  5
176
100
AcDbEntity
  8
0
 62
     7
100
AcDbCircle
 10
82.42157
 20
224.969879
 30
0.0
 40
7.5
210
0.0
220
0.0
230
1.0
100
AcDbArc
 50
289.47118
 51
250.528767
  0
ARC
  5
177
100
AcDbEntity
  8
0
 62
     7
100
AcDbCircle
 10
82.42157
 20
224.969879
 30
0.0
 40
7.5
210
0.0
220
0.0
230
1.0
100
AcDbArc
 50
298.647887
 51
118.647885
  0
LINE
  5
178
100
AcDbEntity
  8
0
 62
     7
100
AcDbLine
 10
84.92157
 20
199.969879
 30
0.0
 11
84.92157
 21
224.969879
 31
0.0
210
0.0
220
0.0
230
1.0
  0
LINE
  5
179
100
AcDbEntity
  8
0
 62
     7
100
AcDbLine
 10
79.92157
 20
199.969879
 30
0.0
 11
79.92157
 21
224.969879
 31
0.0
210
0.0
220
0.0
230
1.0
  0
LINE
  5
17A
100
AcDbEntity
  8
0
 62
     7
100
AcDbLine
 10
84.92157
 20
176.969879
 30
0.0
 11
84.92157
 21
199.969879
 31
0.0
210
0.0
220
0.0
230
1.0
  0
LINE
  5
17B
100
AcDbEntity
  8
0
 62
     7
100
AcDbLine
 10
79.92157
 20
176.969879
 30
0.0
 11
79.92157
 21
199.969879
 31
0.0
210
0.0
220
0.0
230
1.0
  0
LINE
  5
17C
100
AcDbEntity
  8
0
 62
     7
100
AcDbLine
 10
84.92157
 20
151.969879
 30
0.0
 11
84.92157
 21
176.969879
 31
0.0
210
0.0
220
0.0
230
1.0
  0
LINE
  5
17D
100
AcDbEntity
  8
0
 62
     7
100
AcDbLine
 10
79.92157
 20
151.969879
 30
0.0
 11
79.92157
 21
176.969879
 31
0.0
210
0.0
220
0.0
230
1.0
  0
LINE
  5
17E
100
AcDbEntity
  8
0
 62
     7
 48
0.3
100
AcDbLine
 10
84.92157
 20
151.969879
 30
0.0
 11
84.92157
 21
139.969879
 31
0.0
210
0.0
220
0.0
230
1.0
  0
LINE
  5
17F
100
AcDbEntity
  8
0
 62
     7
 48
0.3
100
AcDbLine
 10
79.92157
 20
151.969879
 30
0.0
 11
79.92157
 21
139.969879
 31
0.0
210
0.0
220
0.0
230
1.0
  0
LINE
  5
180
100
AcDbEntity
  8
0
 62
     7
 48
0.125
100
AcDbLine
 10
84.92157
 20
134.969879
 30
0.0
 11
84.92157
 21
139.969879
 31
0.0
210
0.0
220
0.0
230
1.0
  0
LINE
  5
181
100
AcDbEntity
  8
0
 62
     7
 48
0.125
100
AcDbLine
 10
79.92157
 20
134.969879
 30
0.0
 11
79.92157
 21
139.969879
 31
0.0
210
0.0
220
0.0
230
1.0
  0
LINE
  5
182
100
AcDbEntity
  8
0
 62
     7
 48
0.02
100
AcDbLine
 10
75.521568
 20
131.969879
 30
0.0
 11
75.521568
 21
131.169876
 31
0.0
210
0.0
220
0.0
230
1.0
  0
ARC
  5
183
100
AcDbEntity
  8
0
 62
     7
100
AcDbCircle
 10
78.521568
 20
131.969879
 30
0.0
 40
3.0
210
0.0
220
0.0
230
1.0
100
AcDbArc
 50
90.000003
 51
179.999995
  0
LINE
  5
184
100
AcDbEntity
  8
0
 62
     7
 48
0.02
100
AcDbLine
 10
89.321571
 20
131.969879
 30
0.0
 11
89.321571
 21
131.169876
 31
0.0
210
0.0
220
0.0
230
1.0
  0
ARC
  5
185
100
AcDbEntity
  8
0
 62
     7
100
AcDbCircle
 10
86.321571
 20
131.969879
 30
0.0
 40
3.0
210
0.0
220
0.0
230
1.0
100
AcDbArc
 50
360.0
 51
90.000003
  0
LINE
  5
186
100
AcDbEntity
  8
0
 62
     7
 48
0.04994
100
AcDbLine
 10
107.42157
 20
64.969879
 30
0.0
 11
105.423988
 21
64.969879
 31
0.0
210
0.0
220
0.0
230
1.0
  0
LINE
  5
187
100
AcDbEntity
  8
0
 62
     7
100
AcDbLine
 10
57.42157
 20
114.969879
 30
0.0
 11
107.42157
 21
114.969879
 31
0.0
210
0.0
220
0.0
230
1.0
  0
LINE
  5
188
100
AcDbEntity
  8
0
 62
     7
100
AcDbLine
 10
107.42157
 20
64.969879
 30
0.0
 11
107.42157
 21
114.969879
 31
0.0
210
0.0
220
0.0
230
1.0
  0
LINE
  5
189
100
AcDbEntity
  8
0
 62
     7
 48
0.025
100
AcDbLine
 10
57.42157
 20
786.969849
 30
0.0
 11
57.42157
 21
787.969849
 31
0.0
210
0.0
220
0.0
230
1.0
  0
LINE
  5
18A
100
AcDbEntity
  8
0
 62
     7
100
AcDbLine
 10
57.42157
 20
786.969849
 30
0.0
 11
107.42157
 21
786.969849
 31
0.0
210
0.0
220
0.0
230
1.0
  0
LINE
  5
18B
100
AcDbEntity
  8
0
 62
     7
 48
0.025
100
AcDbLine
 10
107.42157
 20
786.969849
 30
0.0
 11
107.42157
 21
787.969849
 31
0.0
210
0.0
220
0.0
230
1.0
  0
LINE
  5
18C
100
AcDbEntity
  8
0
 62
     7
100
AcDbLine
 10
57.42157
 20
787.969849
 30
0.0
 11
107.42157
 21
787.969849
 31
0.0
210
0.0
220
0.0
230
1.0
  0
LINE
  5
18D
100
AcDbEntity
  8
0
 62
     7
 48
0.025
100
AcDbLine
 10
57.42157
 20
63.969879
 30
0.0
 11
57.42157
 21
64.969879
 31
0.0
210
0.0
220
0.0
230
1.0
  0
LINE
  5
18E
100
AcDbEntity
  8
0
 62
     7
100
AcDbLine
 10
57.42157
 20
63.969879
 30
0.0
 11
107.42157
 21
63.969879
 31
0.0
210
0.0
220
0.0
230
1.0
  0
LINE
  5
18F
100
AcDbEntity
  8
0
 62
     7
 48
0.025
100
AcDbLine
 10
107.42157
 20
63.969879
 30
0.0
 11
107.42157
 21
64.969879
 31
0.0
210
0.0
220
0.0
230
1.0
  0
CIRCLE
  5
190
100
AcDbEntity
  8
0
 62
     7
100
AcDbCircle
 10
569.077087
 20
-29.71537
 30
0.0
 40
2.5
210
0.0
220
0.0
230
1.0
  0
LINE
  5
191
100
AcDbEntity
  8
0
 62
     7
 48
0.05
100
AcDbLine
 10
554.887085
 20
-59.71537
 30
0.0
 11
554.887085
 21
-61.71537
 31
0.0
210
0.0
220
0.0
230
1.0
  0
LINE
  5
192
100
AcDbEntity
  8
0
 62
     7
 48
0.05
100
AcDbLine
 10
548.387085
 20
-59.71537
 30
0.0
 11
548.387085
 21
-61.71537
 31
0.0
210
0.0
220
0.0
230
1.0
  0
LINE
  5
193
100
AcDbEntity
  8
0
 62
     7
 48
0.1625
100
AcDbLine
 10
548.387085
 20
-61.71537
 30
0.0
 11
554.887085
 21
-61.71537
 31
0.0
210
0.0
220
0.0
230
1.0
  0
LINE
  5
194
100
AcDbEntity
  8
0
 62
     7
 48
0.1625
100
AcDbLine
 10
554.887085
 20
-59.71537
 30
0.0
 11
548.387085
 21
-59.71537
 31
0.0
210
0.0
220
0.0
230
1.0
  0
CIRCLE
  5
195
100
AcDbEntity
  8
0
 62
     7
100
AcDbCircle
 10
534.197083
 20
-29.71537
 30
0.0
 40
2.5
210
0.0
220
0.0
230
1.0
  0
LINE
  5
196
100
AcDbEntity
  8
0
 62
     7
 48
0.05
100
AcDbLine
 10
576.637085
 20
-57.71537
 30
0.0
 11
576.637085
 21
-59.71537
 31
0.0
210
0.0
220
0.0
230
1.0
  0
LINE
  5
197
100
AcDbEntity
  8
0
 62
     7
 48
0.05
100
AcDbLine
 10
526.637085
 20
-57.71537
 30
0.0
 11
526.637085
 21
-59.71537
 31
0.0
210
0.0
220
0.0
230
1.0
  0
ARC
  5
198
100
AcDbEntity
  8
0
 62
     7
100
AcDbCircle
 10
528.637085
 20
-6.71537
 30
0.0
 40
2.0
210
0.0
220
0.0
230
1.0
100
AcDbArc
 50
90.000003
 51
180.000005
  0
LINE
  5
199
100
AcDbEntity
  8
0
 62
     7
100
AcDbLine
 10
576.637085
 20
-6.71537
 30
0.0
 11
576.637085
 21
-57.71537
 31
0.0
210
0.0
220
0.0
230
1.0
  0
LINE
  5
19A
100
AcDbEntity
  8
0
 62
     7
100
AcDbLine
 10
526.637085
 20
-6.71537
 30
0.0
 11
526.637085
 21
-57.71537
 31
0.0
210
0.0
220
0.0
230
1.0
  0
LINE
  5
19B
100
AcDbEntity
  8
0
 62
     7
100
AcDbLine
 10
574.637085
 20
-4.71537
 30
0.0
 11
528.637085
 21
-4.71537
 31
0.0
210
0.0
220
0.0
230
1.0
  0
ARC
  5
19C
100
AcDbEntity
  8
0
 62
     7
100
AcDbCircle
 10
574.637085
 20
-6.71537
 30
0.0
 40
2.0
210
0.0
220
0.0
230
1.0
100
AcDbArc
 50
0.0
 51
90.000003
  0
LINE
  5
19D
100
AcDbEntity
  8
0
 62
     7
 48
0.49375
100
AcDbLine
 10
574.637085
 20
-59.71537
 30
0.0
 11
554.887085
 21
-59.71537
 31
0.0
210
0.0
220
0.0
230
1.0
  0
LINE
  5
19E
100
AcDbEntity
  8
0
 62
     7
 48
0.49375
100
AcDbLine
 10
574.637085
 20
-61.71537
 30
0.0
 11
554.887085
 21
-61.71537
 31
0.0
210
0.0
220
0.0
230
1.0
  0
LINE
  5
19F
100
AcDbEntity
  8
0
 62
     7
 48
0.05
100
AcDbLine
 10
576.637085
 20
-61.71537
 30
0.0
 11
576.637085
 21
-59.71537
 31
0.0
210
0.0
220
0.0
230
1.0
  0
LINE
  5
1A0
100
AcDbEntity
  8
0
 62
     7
 48
0.05
100
AcDbLine
 10
574.637085
 20
-59.71537
 30
0.0
 11
576.637085
 21
-59.71537
 31
0.0
210
0.0
220
0.0
230
1.0
  0
LINE
  5
1A1
100
AcDbEntity
  8
0
 62
     7
 48
0.05
100
AcDbLine
 10
574.637085
 20
-61.71537
 30
0.0
 11
576.637085
 21
-61.71537
 31
0.0
210
0.0
220
0.0
230
1.0
  0
LINE
  5
1A2
100
AcDbEntity
  8
0
 62
     7
 48
0.49375
100
AcDbLine
 10
548.387085
 20
-61.71537
 30
0.0
 11
528.637085
 21
-61.71537
 31
0.0
210
0.0
220
0.0
230
1.0
  0
LINE
  5
1A3
100
AcDbEntity
  8
0
 62
     7
 48
0.49375
100
AcDbLine
 10
548.387085
 20
-59.71537
 30
0.0
 11
528.637085
 21
-59.71537
 31
0.0
210
0.0
220
0.0
230
1.0
  0
LINE
  5
1A4
100
AcDbEntity
  8
0
 62
     7
 48
0.05
100
AcDbLine
 10
526.637085
 20
-61.71537
 30
0.0
 11
526.637085
 21
-59.71537
 31
0.0
210
0.0
220
0.0
230
1.0
  0
LINE
  5
1A5
100
AcDbEntity
  8
0
 62
     7
 48
0.05
100
AcDbLine
 10
526.637085
 20
-61.71537
 30
0.0
 11
528.637085
 21
-61.71537
 31
0.0
210
0.0
220
0.0
230
1.0
  0
LINE
  5
1A6
100
AcDbEntity
  8
0
 62
     7
 48
0.05
100
AcDbLine
 10
526.637085
 20
-59.71537
 30
0.0
 11
528.637085
 21
-59.71537
 31
0.0
210
0.0
220
0.0
230
1.0
  0
ARC
  5
1A7
100
AcDbEntity
  8
0
 62
     7
100
AcDbCircle
 10
254.637085
 20
-57.71537
 30
0.0
 40
4.0
210
0.0
220
0.0
230
1.0
100
AcDbArc
 50
269.999997
 51
360.0
  0
ARC
  5
1A8
100
AcDbEntity
  8
0
 62
     7
100
AcDbCircle
 10
254.637085
 20
-57.71537
 30
0.0
 40
2.0
210
0.0
220
0.0
230
1.0
100
AcDbArc
 50
269.999997
 51
360.0
  0
LINE
  5
1A9
100
AcDbEntity
  8
0
 62
     7
100
AcDbLine
 10
256.637085
 20
-6.71537
 30
0.0
 11
256.637085
 21
-57.71537
 31
0.0
210
0.0
220
0.0
230
1.0
  0
LINE
  5
1AA
100
AcDbEntity
  8
0
 62
     7
 48
0.05
100
AcDbLine
 10
256.637085
 20
-6.71537
 30
0.0
 11
256.637085
 21
-4.71537
 31
0.0
210
0.0
220
0.0
230
1.0
  0
LINE
  5
1AB
100
AcDbEntity
  8
0
 62
     7
100
AcDbLine
 10
258.637085
 20
-6.71537
 30
0.0
 11
258.637085
 21
-57.71537
 31
0.0
210
0.0
220
0.0
230
1.0
  0
LINE
  5
1AC
100
AcDbEntity
  8
0
 62
     7
 48
0.05
100
AcDbLine
 10
258.637085
 20
-6.71537
 30
0.0
 11
258.637085
 21
-4.71537
 31
0.0
210
0.0
220
0.0
230
1.0
  0
LINE
  5
1AD
100
AcDbEntity
  8
0
 62
     7
 48
0.05
100
AcDbLine
 10
256.637085
 20
-4.71537
 30
0.0
 11
258.637085
 21
-4.71537
 31
0.0
210
0.0
220
0.0
230
1.0
  0
LINE
  5
1AE
100
AcDbEntity
  8
0
 62
     7
 48
0.05
100
AcDbLine
 10
228.637085
 20
-61.71537
 30
0.0
 11
228.637085
 21
-59.71537
 31
0.0
210
0.0
220
0.0
230
1.0
  0
LINE
  5
1AF
100
AcDbEntity
  8
0
 62
     7
100
AcDbLine
 10
254.637085
 20
-59.71537
 30
0.0
 11
230.637085
 21
-59.71537
 31
0.0
210
0.0
220
0.0
230
1.0
  0
LINE
  5
1B0
100
AcDbEntity
  8
0
 62
     7
100
AcDbLine
 10
254.637085
 20
-61.71537
 30
0.0
 11
230.637085
 21
-61.71537
 31
0.0
210
0.0
220
0.0
230
1.0
  0
LINE
  5
1B1
100
AcDbEntity
  8
0
 62
     7
 48
0.05
100
AcDbLine
 10
228.637085
 20
-59.71537
 30
0.0
 11
230.637085
 21
-59.71537
 31
0.0
210
0.0
220
0.0
230
1.0
  0
LINE
  5
1B2
100
AcDbEntity
  8
0
 62
     7
 48
0.05
100
AcDbLine
 10
228.637085
 20
-61.71537
 30
0.0
 11
230.637085
 21
-61.71537
 31
0.0
210
0.0
220
0.0
230
1.0
  0
LINE
  5
1B3
100
AcDbEntity
  8
0
 62
     7
 48
0.2
100
AcDbLine
 10
584.637085
 20
-54.71537
 30
0.0
 11
576.637085
 21
-54.71537
 31
0.0
210
0.0
220
0.0
230
1.0
  0
LINE
  5
1B4
100
AcDbEntity
  8
0
 62
     7
100
AcDbLine
 10
526.637085
 20
-54.71537
 30
0.0
 11
259.637085
 21
-54.71537
 31
0.0
210
0.0
220
0.0
230
1.0
  0
LINE
  5
1B5
100
AcDbEntity
  8
0
 62
     7
100
AcDbLine
 10
584.637085
 20
-54.71537
 30
0.0
 11
584.637085
 21
-4.71537
 31
0.0
210
0.0
220
0.0
230
1.0
  0
LINE
  5
1B6
100
AcDbEntity
  8
0
 62
     7
 48
0.25
100
AcDbLine
 10
584.637085
 20
-4.71537
 30
0.0
 11
574.637085
 21
-4.71537
 31
0.0
210
0.0
220
0.0
230
1.0
  0
LINE
  5
1B7
100
AcDbEntity
  8
0
 62
     7
100
AcDbLine
 10
528.637085
 20
-4.71537
 30
0.0
 11
259.637085
 21
-4.71537
 31
0.0
210
0.0
220
0.0
230
1.0
  0
LINE
  5
1B8
100
AcDbEntity
  8
0
 62
     7
100
AcDbLine
 10
259.637085
 20
-54.71537
 30
0.0
 11
259.637085
 21
-4.71537
 31
0.0
210
0.0
220
0.0
230
1.0
  0
ARC
  5
1B9
100
AcDbEntity
  8
0
 62
     7
100
AcDbCircle
 10
589.637085
 20
-57.71537
 30
0.0
 40
4.0
210
0.0
220
0.0
230
1.0
100
AcDbArc
 50
180.000005
 51
269.999997
  0
ARC
  5
1BA
100
AcDbEntity
  8
0
 62
     7
100
AcDbCircle
 10
589.637085
 20
-57.71537
 30
0.0
 40
2.0
210
0.0
220
0.0
230
1.0
100
AcDbArc
 50
180.000005
 51
269.999997
  0
LINE
  5
1BB
100
AcDbEntity
  8
0
 62
     7
 48
0.05
100
AcDbLine
 10
587.637085
 20
-4.71537
 30
0.0
 11
587.637085
 21
-6.71537
 31
0.0
210
0.0
220
0.0
230
1.0
  0
LINE
  5
1BC
100
AcDbEntity
  8
0
 62
     7
 48
0.05
100
AcDbLine
 10
587.637085
 20
-4.71537
 30
0.0
 11
585.637085
 21
-4.71537
 31
0.0
210
0.0
220
0.0
230
1.0
  0
LINE
  5
1BD
100
AcDbEntity
  8
0
 62
     7
100
AcDbLine
 10
587.637085
 20
-6.71537
 30
0.0
 11
587.637085
 21
-57.71537
 31
0.0
210
0.0
220
0.0
230
1.0
  0
LINE
  5
1BE
100
AcDbEntity
  8
0
 62
     7
100
AcDbLine
 10
585.637085
 20
-6.71537
 30
0.0
 11
585.637085
 21
-57.71537
 31
0.0
210
0.0
220
0.0
230
1.0
  0
LINE
  5
1BF
100
AcDbEntity
  8
0
 62
     7
 48
0.05
100
AcDbLine
 10
615.637085
 20
-61.71537
 30
0.0
 11
615.637085
 21
-59.71537
 31
0.0
210
0.0
220
0.0
230
1.0
  0
LINE
  5
1C0
100
AcDbEntity
  8
0
 62
     7
100
AcDbLine
 10
589.637085
 20
-59.71537
 30
0.0
 11
613.637085
 21
-59.71537
 31
0.0
210
0.0
220
0.0
230
1.0
  0
LINE
  5
1C1
100
AcDbEntity
  8
0
 62
     7
100
AcDbLine
 10
589.637085
 20
-61.71537
 30
0.0
 11
613.637085
 21
-61.71537
 31
0.0
210
0.0
220
0.0
230
1.0
  0
LINE
  5
1C2
100
AcDbEntity
  8
0
 62
     7
 48
0.05
100
AcDbLine
 10
613.637085
 20
-61.71537
 30
0.0
 11
615.637085
 21
-61.71537
 31
0.0
210
0.0
220
0.0
230
1.0
  0
LINE
  5
1C3
100
AcDbEntity
  8
0
 62
     7
 48
0.05
100
AcDbLine
 10
613.637085
 20
-59.71537
 30
0.0
 11
615.637085
 21
-59.71537
 31
0.0
210
0.0
220
0.0
230
1.0
  0
LINE
  5
1C4
100
AcDbEntity
  8
0
 62
     7
 48
0.025
100
AcDbLine
 10
585.637085
 20
-54.71537
 30
0.0
 11
584.637085
 21
-54.71537
 31
0.0
210
0.0
220
0.0
230
1.0
  0
LINE
  5
1C5
100
AcDbEntity
  8
0
 62
     7
100
AcDbLine
 10
585.637085
 20
-54.71537
 30
0.0
 11
585.637085
 21
-4.71537
 31
0.0
210
0.0
220
0.0
230
1.0
  0
LINE
  5
1C6
100
AcDbEntity
  8
0
 62
     7
 48
0.025
100
AcDbLine
 10
585.637085
 20
-4.71537
 30
0.0
 11
584.637085
 21
-4.71537
 31
0.0
210
0.0
220
0.0
230
1.0
  0
LINE
  5
1C7
100
AcDbEntity
  8
0
 62
     7
100
AcDbLine
 10
584.637085
 20
-54.71537
 30
0.0
 11
584.637085
 21
-4.71537
 31
0.0
210
0.0
220
0.0
230
1.0
  0
LINE
  5
1C8
100
AcDbEntity
  8
0
 62
     7
 48
0.025
100
AcDbLine
 10
258.637085
 20
-4.71537
 30
0.0
 11
259.637085
 21
-4.71537
 31
0.0
210
0.0
220
0.0
230
1.0
  0
LINE
  5
1C9
100
AcDbEntity
  8
0
 62
     7
100
AcDbLine
 10
258.637085
 20
-4.71537
 30
0.0
 11
258.637085
 21
-54.71537
 31
0.0
210
0.0
220
0.0
230
1.0
  0
LINE
  5
1CA
100
AcDbEntity
  8
0
 62
     7
 48
0.025
100
AcDbLine
 10
258.637085
 20
-54.71537
 30
0.0
 11
259.637085
 21
-54.71537
 31
0.0
210
0.0
220
0.0
230
1.0
  0
LINE
  5
1CB
100
AcDbEntity
  8
0
 62
     7
100
AcDbLine
 10
259.637085
 20
-4.71537
 30
0.0
 11
259.637085
 21
-54.71537
 31
0.0
210
0.0
220
0.0
230
1.0
  0
LINE
  5
1CC
100
AcDbEntity
  8
0
 62
     7
 48
0.04994
100
AcDbLine
 10
576.637085
 20
-4.71537
 30
0.0
 11
576.637085
 21
-6.712982
 31
0.0
210
0.0
220
0.0
230
1.0
  0
LINE
  5
1CD
100
AcDbEntity
  8
0
 62
     7
100
AcDbLine
 10
526.637085
 20
-54.71537
 30
0.0
 11
526.637085
 21
-4.71537
 31
0.0
210
0.0
220
0.0
230
1.0
  0
LINE
  5
1CE
100
AcDbEntity
  8
0
 62
     7
100
AcDbLine
 10
576.637085
 20
-4.71537
 30
0.0
 11
526.637085
 21
-4.71537
 31
0.0
210
0.0
220
0.0
230
1.0
  0
LINE
  5
1CF
100
AcDbEntity
  8
0
 62
     7
100
AcDbLine
 10
725.874695
 20
110.690727
 30
0.0
 11
725.874695
 21
782.690735
 31
0.0
210
0.0
220
0.0
230
1.0
  0
LINE
  5
1D0
100
AcDbEntity
  8
0
 62
     7
 48
0.0625
100
AcDbLine
 10
725.874695
 20
110.690727
 30
0.0
 11
728.374695
 21
110.690727
 31
0.0
210
0.0
220
0.0
230
1.0
  0
LINE
  5
1D1
100
AcDbEntity
  8
0
 62
     7
100
AcDbLine
 10
728.374695
 20
110.690727
 30
0.0
 11
728.374695
 21
782.690735
 31
0.0
210
0.0
220
0.0
230
1.0
  0
LINE
  5
1D2
100
AcDbEntity
  8
0
 62
     7
 48
0.0625
100
AcDbLine
 10
725.874695
 20
782.690735
 30
0.0
 11
728.374695
 21
782.690735
 31
0.0
210
0.0
220
0.0
230
1.0
  0
LINE
  5
1D3
100
AcDbEntity
  8
0
 62
     7
100
AcDbLine
 10
773.374695
 20
110.690727
 30
0.0
 11
773.374695
 21
782.690735
 31
0.0
210
0.0
220
0.0
230
1.0
  0
LINE
  5
1D4
100
AcDbEntity
  8
0
 62
     7
 48
0.0625
100
AcDbLine
 10
773.374695
 20
110.690727
 30
0.0
 11
775.874695
 21
110.690727
 31
0.0
210
0.0
220
0.0
230
1.0
  0
LINE
  5
1D5
100
AcDbEntity
  8
0
 62
     7
100
AcDbLine
 10
775.874695
 20
110.690727
 30
0.0
 11
775.874695
 21
782.690735
 31
0.0
210
0.0
220
0.0
230
1.0
  0
LINE
  5
1D6
100
AcDbEntity
  8
0
 62
     7
 48
0.0625
100
AcDbLine
 10
773.374695
 20
782.690735
 30
0.0
 11
775.874695
 21
782.690735
 31
0.0
210
0.0
220
0.0
230
1.0
  0
LINE
  5
1D7
100
AcDbEntity
  8
0
 62
     7
100
AcDbLine
 10
728.374695
 20
782.690735
 30
0.0
 11
773.374695
 21
782.690735
 31
0.0
210
0.0
220
0.0
230
1.0
  0
LINE
  5
1D8
100
AcDbEntity
  8
0
 62
     7
100
AcDbLine
 10
728.374695
 20
110.690727
 30
0.0
 11
728.374695
 21
782.690735
 31
0.0
210
0.0
220
0.0
230
1.0
  0
LINE
  5
1D9
100
AcDbEntity
  8
0
 62
     7
 48
0.36875
100
AcDbLine
 10
754.124695
 20
44.440727
 30
0.0
 11
754.124695
 21
29.690727
 31
0.0
210
0.0
220
0.0
230
1.0
  0
LINE
  5
1DA
100
AcDbEntity
  8
0
 62
     7
 48
0.36875
100
AcDbLine
 10
747.624695
 20
29.690727
 30
0.0
 11
747.624695
 21
44.440727
 31
0.0
210
0.0
220
0.0
230
1.0
  0
ARC
  5
1DB
100
AcDbEntity
  8
0
 62
     7
100
AcDbCircle
 10
750.874695
 20
44.440727
 30
0.0
 40
3.25
210
0.0
220
0.0
230
1.0
100
AcDbArc
 50
0.0
 51
179.999995
  0
LINE
  5
1DC
100
AcDbEntity
  8
0
 62
     7
 48
0.05
100
AcDbLine
 10
775.874695
 20
57.690727
 30
0.0
 11
775.874695
 21
55.690727
 31
0.0
210
0.0
220
0.0
230
1.0
  0
LINE
  5
1DD
100
AcDbEntity
  8
0
 62
     7
 48
0.05
100
AcDbLine
 10
725.874695
 20
57.690727
 30
0.0
 11
725.874695
 21
55.690727
 31
0.0
210
0.0
220
0.0
230
1.0
  0
LINE
  5
1DE
100
AcDbEntity
  8
0
 62
     7
 48
0.05
100
AcDbLine
 10
725.874695
 20
57.690727
 30
0.0
 11
725.874695
 21
59.690727
 31
0.0
210
0.0
220
0.0
230
1.0
  0
LINE
  5
1DF
100
AcDbEntity
  8
0
 62
     7
 48
0.05
100
AcDbLine
 10
727.874695
 20
57.690727
 30
0.0
 11
725.874695
 21
57.690727
 31
0.0
210
0.0
220
0.0
230
1.0
  0
LINE
  5
1E0
100
AcDbEntity
  8
0
 62
     7
100
AcDbLine
 10
773.874695
 20
57.690727
 30
0.0
 11
727.874695
 21
57.690727
 31
0.0
210
0.0
220
0.0
230
1.0
  0
LINE
  5
1E1
100
AcDbEntity
  8
0
 62
     7
 48
0.05
100
AcDbLine
 10
775.874695
 20
57.690727
 30
0.0
 11
773.874695
 21
57.690727
 31
0.0
210
0.0
220
0.0
230
1.0
  0
LINE
  5
1E2
100
AcDbEntity
  8
0
 62
     7
100
AcDbLine
 10
773.874695
 20
59.690727
 30
0.0
 11
727.874695
 21
59.690727
 31
0.0
210
0.0
220
0.0
230
1.0
  0
LINE
  5
1E3
100
AcDbEntity
  8
0
 62
     7
 48
0.05
100
AcDbLine
 10
775.874695
 20
57.690727
 30
0.0
 11
775.874695
 21
59.690727
 31
0.0
210
0.0
220
0.0
230
1.0
  0
LINE
  5
1E4
100
AcDbEntity
  8
0
 62
     7
 48
0.49375
100
AcDbLine
 10
773.874695
 20
29.690727
 30
0.0
 11
754.124695
 21
29.690727
 31
0.0
210
0.0
220
0.0
230
1.0
  0
LINE
  5
1E5
100
AcDbEntity
  8
0
 62
     7
100
AcDbLine
 10
775.874695
 20
55.690727
 30
0.0
 11
775.874695
 21
31.690727
 31
0.0
210
0.0
220
0.0
230
1.0
  0
ARC
  5
1E6
100
AcDbEntity
  8
0
 62
     7
100
AcDbCircle
 10
773.874695
 20
31.690727
 30
0.0
 40
2.0
210
0.0
220
0.0
230
1.0
100
AcDbArc
 50
269.999997
 51
360.0
  0
LINE
  5
1E7
100
AcDbEntity
  8
0
 62
     7
 48
0.49375
100
AcDbLine
 10
747.624695
 20
29.690727
 30
0.0
 11
727.874695
 21
29.690727
 31
0.0
210
0.0
220
0.0
230
1.0
  0
LINE
  5
1E8
100
AcDbEntity
  8
0
 62
     7
100
AcDbLine
 10
725.874695
 20
55.690727
 30
0.0
 11
725.874695
 21
31.690727
 31
0.0
210
0.0
220
0.0
230
1.0
  0
ARC
  5
1E9
100
AcDbEntity
  8
0
 62
     7
100
AcDbCircle
 10
727.874695
 20
31.690727
 30
0.0
 40
2.0
210
0.0
220
0.0
230
1.0
100
AcDbArc
 50
180.000005
 51
269.999997
  0
LINE
  5
1EA
100
AcDbEntity
  8
0
 62
     7
 48
0.36875
100
AcDbLine
 10
747.624695
 20
798.940735
 30
0.0
 11
747.624695
 21
813.690735
 31
0.0
210
0.0
220
0.0
230
1.0
  0
LINE
  5
1EB
100
AcDbEntity
  8
0
 62
     7
 48
0.36875
100
AcDbLine
 10
754.124695
 20
813.690735
 30
0.0
 11
754.124695
 21
798.940735
 31
0.0
210
0.0
220
0.0
230
1.0
  0
ARC
  5
1EC
100
AcDbEntity
  8
0
 62
     7
100
AcDbCircle
 10
750.874695
 20
798.940735
 30
0.0
 40
3.25
210
0.0
220
0.0
230
1.0
100
AcDbArc
 50
179.999995
 51
0.0
  0
LINE
  5
1ED
100
AcDbEntity
  8
0
 62
     7
 48
0.05
100
AcDbLine
 10
725.874695
 20
785.690735
 30
0.0
 11
725.874695
 21
787.690735
 31
0.0
210
0.0
220
0.0
230
1.0
  0
LINE
  5
1EE
100
AcDbEntity
  8
0
 62
     7
 48
0.05
100
AcDbLine
 10
775.874695
 20
785.690735
 30
0.0
 11
775.874695
 21
787.690735
 31
0.0
210
0.0
220
0.0
230
1.0
  0
LINE
  5
1EF
100
AcDbEntity
  8
0
 62
     7
 48
0.05
100
AcDbLine
 10
775.874695
 20
785.690735
 30
0.0
 11
775.874695
 21
783.690735
 31
0.0
210
0.0
220
0.0
230
1.0
  0
LINE
  5
1F0
100
AcDbEntity
  8
0
 62
     7
 48
0.05
100
AcDbLine
 10
773.874695
 20
785.690735
 30
0.0
 11
775.874695
 21
785.690735
 31
0.0
210
0.0
220
0.0
230
1.0
  0
LINE
  5
1F1
100
AcDbEntity
  8
0
 62
     7
100
AcDbLine
 10
727.874695
 20
785.690735
 30
0.0
 11
773.874695
 21
785.690735
 31
0.0
210
0.0
220
0.0
230
1.0
  0
LINE
  5
1F2
100
AcDbEntity
  8
0
 62
     7
 48
0.05
100
AcDbLine
 10
725.874695
 20
785.690735
 30
0.0
 11
727.874695
 21
785.690735
 31
0.0
210
0.0
220
0.0
230
1.0
  0
LINE
  5
1F3
100
AcDbEntity
  8
0
 62
     7
100
AcDbLine
 10
727.874695
 20
783.690735
 30
0.0
 11
773.874695
 21
783.690735
 31
0.0
210
0.0
220
0.0
230
1.0
  0
LINE
  5
1F4
100
AcDbEntity
  8
0
 62
     7
 48
0.05
100
AcDbLine
 10
725.874695
 20
785.690735
 30
0.0
 11
725.874695
 21
783.690735
 31
0.0
210
0.0
220
0.0
230
1.0
  0
LINE
  5
1F5
100
AcDbEntity
  8
0
 62
     7
 48
0.49375
100
AcDbLine
 10
727.874695
 20
813.690735
 30
0.0
 11
747.624695
 21
813.690735
 31
0.0
210
0.0
220
0.0
230
1.0
  0
LINE
  5
1F6
100
AcDbEntity
  8
0
 62
     7
100
AcDbLine
 10
725.874695
 20
787.690735
 30
0.0
 11
725.874695
 21
811.690735
 31
0.0
210
0.0
220
0.0
230
1.0
  0
ARC
  5
1F7
100
AcDbEntity
  8
0
 62
     7
100
AcDbCircle
 10
727.874695
 20
811.690735
 30
0.0
 40
2.0
210
0.0
220
0.0
230
1.0
100
AcDbArc
 50
90.000003
 51
180.000005
  0
LINE
  5
1F8
100
AcDbEntity
  8
0
 62
     7
 48
0.49375
100
AcDbLine
 10
754.124695
 20
813.690735
 30
0.0
 11
773.874695
 21
813.690735
 31
0.0
210
0.0
220
0.0
230
1.0
  0
LINE
  5
1F9
100
AcDbEntity
  8
0
 62
     7
100
AcDbLine
 10
775.874695
 20
787.690735
 30
0.0
 11
775.874695
 21
811.690735
 31
0.0
210
0.0
220
0.0
230
1.0
  0
ARC
  5
1FA
100
AcDbEntity
  8
0
 62
     7
100
AcDbCircle
 10
773.874695
 20
811.690735
 30
0.0
 40
2.0
210
0.0
220
0.0
230
1.0
100
AcDbArc
 50
0.0
 51
90.000003
  0
LINE
  5
1FB
100
AcDbEntity
  8
0
 62
     7
100
AcDbLine
 10
775.874695
 20
180.690735
 30
0.0
 11
775.874695
 21
295.690735
 31
0.0
210
0.0
220
0.0
230
1.0
  0
LINE
  5
1FC
100
AcDbEntity
  8
0
 62
     7
100
AcDbLine
 10
777.374695
 20
180.690735
 30
0.0
 11
777.374695
 21
295.690735
 31
0.0
210
0.0
220
0.0
230
1.0
  0
LINE
  5
1FD
100
AcDbEntity
  8
0
 62
     7
 48
0.1125
100
AcDbLine
 10
777.374695
 20
260.190735
 30
0.0
 11
781.874695
 21
260.190735
 31
0.0
210
0.0
220
0.0
230
1.0
  0
LINE
  5
1FE
100
AcDbEntity
  8
0
 62
     7
 48
0.1125
100
AcDbLine
 10
777.374695
 20
274.690735
 30
0.0
 11
781.874695
 21
274.690735
 31
0.0
210
0.0
220
0.0
230
1.0
  0
LINE
  5
1FF
100
AcDbEntity
  8
0
 62
     7
 48
0.3625
100
AcDbLine
 10
781.874695
 20
274.690735
 30
0.0
 11
781.874695
 21
260.190735
 31
0.0
210
0.0
220
0.0
230
1.0
  0
LINE
  5
200
100
AcDbEntity
  8
0
 62
     7
 48
0.1125
100
AcDbLine
 10
777.374695
 20
289.190735
 30
0.0
 11
781.874695
 21
289.190735
 31
0.0
210
0.0
220
0.0
230
1.0
  0
LINE
  5
201
100
AcDbEntity
  8
0
 62
     7
 48
0.3625
100
AcDbLine
 10
781.874695
 20
289.190735
 30
0.0
 11
781.874695
 21
274.690735
 31
0.0
210
0.0
220
0.0
230
1.0
  0
LINE
  5
202
100
AcDbEntity
  8
0
 62
     7
 48
0.429375
100
AcDbLine
 10
786.874695
 20
263.240723
 30
0.0
 11
786.874695
 21
280.415741
 31
0.0
210
0.0
220
0.0
230
1.0
  0
LINE
  5
203
100
AcDbEntity
  8
0
 62
     7
 48
0.143124
100
AcDbLine
 10
786.874695
 20
280.415741
 30
0.0
 11
786.874695
 21
286.140717
 31
0.0
210
0.0
220
0.0
230
1.0
  0
LINE
  5
204
100
AcDbEntity
  8
0
 62
     7
 48
0.2575
100
AcDbLine
 10
780.574707
 20
230.990723
 30
0.0
 11
780.574707
 21
220.690735
 31
0.0
210
0.0
220
0.0
230
1.0
  0
LINE
  5
205
100
AcDbEntity
  8
0
 62
     7
 48
0.2575
100
AcDbLine
 10
780.574707
 20
220.690735
 30
0.0
 11
780.574707
 21
210.390717
 31
0.0
210
0.0
220
0.0
230
1.0
  0
LINE
  5
206
100
AcDbEntity
  8
0
 62
     7
 48
0.2575
100
AcDbLine
 10
780.574707
 20
205.990723
 30
0.0
 11
780.574707
 21
195.690735
 31
0.0
210
0.0
220
0.0
230
1.0
  0
LINE
  5
207
100
AcDbEntity
  8
0
 62
     7
 48
0.2575
100
AcDbLine
 10
780.574707
 20
195.690735
 30
0.0
 11
780.574707
 21
185.390717
 31
0.0
210
0.0
220
0.0
230
1.0
  0
LINE
  5
208
100
AcDbEntity
  8
0
 62
     7
 48
0.0375
100
AcDbLine
 10
775.874695
 20
295.690735
 30
0.0
 11
777.374695
 21
295.690735
 31
0.0
210
0.0
220
0.0
230
1.0
  0
LINE
  5
209
100
AcDbEntity
  8
0
 62
     7
 48
0.0375
100
AcDbLine
 10
775.874695
 20
180.690735
 30
0.0
 11
777.374695
 21
180.690735
 31
0.0
210
0.0
220
0.0
230
1.0
  0
LINE
  5
20A
100
AcDbEntity
  8
0
 62
     7
 48
0.08
100
AcDbLine
 10
777.374695
 20
230.990723
 30
0.0
 11
780.574707
 21
230.990723
 31
0.0
210
0.0
220
0.0
230
1.0
  0
LINE
  5
20B
100
AcDbEntity
  8
0
 62
     7
 48
0.08
100
AcDbLine
 10
777.374695
 20
220.690735
 30
0.0
 11
780.574707
 21
220.690735
 31
0.0
210
0.0
220
0.0
230
1.0
  0
LINE
  5
20C
100
AcDbEntity
  8
0
 62
     7
 48
0.08
100
AcDbLine
 10
777.374695
 20
210.390717
 30
0.0
 11
780.574707
 21
210.390717
 31
0.0
210
0.0
220
0.0
230
1.0
  0
LINE
  5
20D
100
AcDbEntity
  8
0
 62
     7
 48
0.08
100
AcDbLine
 10
777.374695
 20
205.990723
 30
0.0
 11
780.574707
 21
205.990723
 31
0.0
210
0.0
220
0.0
230
1.0
  0
LINE
  5
20E
100
AcDbEntity
  8
0
 62
     7
 48
0.08
100
AcDbLine
 10
777.374695
 20
195.690735
 30
0.0
 11
780.574707
 21
195.690735
 31
0.0
210
0.0
220
0.0
230
1.0
  0
LINE
  5
20F
100
AcDbEntity
  8
0
 62
     7
 48
0.08
100
AcDbLine
 10
777.374695
 20
185.390717
 30
0.0
 11
780.574707
 21
185.390717
 31
0.0
210
0.0
220
0.0
230
1.0
  0
LINE
  5
210
100
AcDbEntity
  8
0
 62
     7
 48
0.0875
100
AcDbLine
 10
788.374695
 20
249.190735
 30
0.0
 11
788.374695
 21
252.690735
 31
0.0
210
0.0
220
0.0
230
1.0
  0
LINE
  5
211
100
AcDbEntity
  8
0
 62
     7
 48
0.2625
100
AcDbLine
 10
788.374695
 20
238.690735
 30
0.0
 11
788.374695
 21
249.190735
 31
0.0
210
0.0
220
0.0
230
1.0
  0
LINE
  5
212
100
AcDbEntity
  8
0
 62
     7
 48
0.2375
100
AcDbLine
 10
781.374695
 20
255.190735
 30
0.0
 11
781.374695
 21
245.690735
 31
0.0
210
0.0
220
0.0
230
1.0
  0
LINE
  5
213
100
AcDbEntity
  8
0
 62
     7
 48
0.2375
100
AcDbLine
 10
781.374695
 20
245.690735
 30
0.0
 11
781.374695
 21
236.190735
 31
0.0
210
0.0
220
0.0
230
1.0
  0
LINE
  5
214
100
AcDbEntity
  8
0
 62
     7
 48
0.1
100
AcDbLine
 10
777.374695
 20
255.190735
 30
0.0
 11
781.374695
 21
255.190735
 31
0.0
210
0.0
220
0.0
230
1.0
  0
LINE
  5
215
100
AcDbEntity
  8
0
 62
     7
 48
0.1
100
AcDbLine
 10
777.374695
 20
245.690735
 30
0.0
 11
781.374695
 21
245.690735
 31
0.0
210
0.0
220
0.0
230
1.0
  0
LINE
  5
216
100
AcDbEntity
  8
0
 62
     7
 48
0.1
100
AcDbLine
 10
777.374695
 20
236.190735
 30
0.0
 11
781.374695
 21
236.190735
 31
0.0
210
0.0
220
0.0
230
1.0
  0
LINE
  5
217
100
AcDbEntity
  8
0
 62
     7
 48
0.125
100
AcDbLine
 10
781.874695
 20
263.240723
 30
0.0
 11
786.874695
 21
263.240723
 31
0.0
210
0.0
220
0.0
230
1.0
  0
LINE
  5
218
100
AcDbEntity
  8
0
 62
     7
 48
0.125
100
AcDbLine
 10
781.874695
 20
286.140717
 30
0.0
 11
786.874695
 21
286.140717
 31
0.0
210
0.0
220
0.0
230
1.0
  0
LINE
  5
219
100
AcDbEntity
  8
0
 62
     7
 48
0.175
100
AcDbLine
 10
781.374695
 20
252.690735
 30
0.0
 11
788.374695
 21
252.690735
 31
0.0
210
0.0
220
0.0
230
1.0
  0
LINE
  5
21A
100
AcDbEntity
  8
0
 62
     7
 48
0.175
100
AcDbLine
 10
781.374695
 20
238.690735
 30
0.0
 11
788.374695
 21
238.690735
 31
0.0
210
0.0
220
0.0
230
1.0
  0
LINE
  5
21B
100
AcDbEntity
  8
0
 62
     7
 48
0.36875
100
AcDbLine
 10
701.624695
 20
82.440727
 30
0.0
 11
686.874695
 21
82.440727
 31
0.0
210
0.0
220
0.0
230
1.0
  0
LINE
  5
21C
100
AcDbEntity
  8
0
 62
     7
 48
0.36875
100
AcDbLine
 10
686.874695
 20
88.940727
 30
0.0
 11
701.624695
 21
88.940727
 31
0.0
210
0.0
220
0.0
230
1.0
  0
ARC
  5
21D
100
AcDbEntity
  8
0
 62
     7
100
AcDbCircle
 10
701.624695
 20
85.690727
 30
0.0
 40
3.25
210
0.0
220
0.0
230
1.0
100
AcDbArc
 50
269.999997
 51
90.000003
  0
LINE
  5
21E
100
AcDbEntity
  8
0
 62
     7
 48
0.05
100
AcDbLine
 10
714.874695
 20
60.690727
 30
0.0
 11
712.874695
 21
60.690727
 31
0.0
210
0.0
220
0.0
230
1.0
  0
LINE
  5
21F
100
AcDbEntity
  8
0
 62
     7
 48
0.05
100
AcDbLine
 10
714.874695
 20
110.690727
 30
0.0
 11
712.874695
 21
110.690727
 31
0.0
210
0.0
220
0.0
230
1.0
  0
LINE
  5
220
100
AcDbEntity
  8
0
 62
     7
 48
0.05
100
AcDbLine
 10
714.874695
 20
110.690727
 30
0.0
 11
716.874695
 21
110.690727
 31
0.0
210
0.0
220
0.0
230
1.0
  0
LINE
  5
221
100
AcDbEntity
  8
0
 62
     7
 48
0.05
100
AcDbLine
 10
714.874695
 20
108.690727
 30
0.0
 11
714.874695
 21
110.690727
 31
0.0
210
0.0
220
0.0
230
1.0
  0
LINE
  5
222
100
AcDbEntity
  8
0
 62
     7
100
AcDbLine
 10
714.874695
 20
62.690727
 30
0.0
 11
714.874695
 21
108.690727
 31
0.0
210
0.0
220
0.0
230
1.0
  0
LINE
  5
223
100
AcDbEntity
  8
0
 62
     7
 48
0.05
100
AcDbLine
 10
714.874695
 20
60.690727
 30
0.0
 11
714.874695
 21
62.690727
 31
0.0
210
0.0
220
0.0
230
1.0
  0
LINE
  5
224
100
AcDbEntity
  8
0
 62
     7
100
AcDbLine
 10
716.874695
 20
62.690727
 30
0.0
 11
716.874695
 21
108.690727
 31
0.0
210
0.0
220
0.0
230
1.0
  0
LINE
  5
225
100
AcDbEntity
  8
0
 62
     7
 48
0.05
100
AcDbLine
 10
714.874695
 20
60.690727
 30
0.0
 11
716.874695
 21
60.690727
 31
0.0
210
0.0
220
0.0
230
1.0
  0
LINE
  5
226
100
AcDbEntity
  8
0
 62
     7
 48
0.49375
100
AcDbLine
 10
686.874695
 20
62.690727
 30
0.0
 11
686.874695
 21
82.440727
 31
0.0
210
0.0
220
0.0
230
1.0
  0
LINE
  5
227
100
AcDbEntity
  8
0
 62
     7
100
AcDbLine
 10
712.874695
 20
60.690727
 30
0.0
 11
688.874695
 21
60.690727
 31
0.0
210
0.0
220
0.0
230
1.0
  0
ARC
  5
228
100
AcDbEntity
  8
0
 62
     7
100
AcDbCircle
 10
688.874695
 20
62.690727
 30
0.0
 40
2.0
210
0.0
220
0.0
230
1.0
100
AcDbArc
 50
180.000005
 51
269.999997
  0
LINE
  5
229
100
AcDbEntity
  8
0
 62
     7
 48
0.49375
100
AcDbLine
 10
686.874695
 20
88.940727
 30
0.0
 11
686.874695
 21
108.690727
 31
0.0
210
0.0
220
0.0
230
1.0
  0
LINE
  5
22A
100
AcDbEntity
  8
0
 62
     7
100
AcDbLine
 10
712.874695
 20
110.690727
 30
0.0
 11
688.874695
 21
110.690727
 31
0.0
210
0.0
220
0.0
230
1.0
  0
ARC
  5
22B
100
AcDbEntity
  8
0
 62
     7
100
AcDbCircle
 10
688.874695
 20
108.690727
 30
0.0
 40
2.0
210
0.0
220
0.0
230
1.0
100
AcDbArc
 50
90.000003
 51
180.000005
  0
LINE
  5
22C
100
AcDbEntity
  8
0
 62
     7
100
AcDbLine
 10
1042.874756
 20
60.690727
 30
0.0
 11
717.874695
 21
60.690727
 31
0.0
210
0.0
220
0.0
230
1.0
  0
LINE
  5
22D
100
AcDbEntity
  8
0
 62
     7
100
AcDbLine
 10
1042.874756
 20
63.190727
 30
0.0
 11
717.874695
 21
63.190727
 31
0.0
210
0.0
220
0.0
230
1.0
  0
LINE
  5
22E
100
AcDbEntity
  8
0
 62
     7
 48
0.0625
100
AcDbLine
 10
1042.874756
 20
60.690727
 30
0.0
 11
1042.874756
 21
63.190727
 31
0.0
210
0.0
220
0.0
230
1.0
  0
LINE
  5
22F
100
AcDbEntity
  8
0
 62
     7
 48
0.0625
100
AcDbLine
 10
1042.874756
 20
108.190727
 30
0.0
 11
1042.874756
 21
110.690727
 31
0.0
210
0.0
220
0.0
230
1.0
  0
LINE
  5
230
100
AcDbEntity
  8
0
 62
     7
 48
0.0625
100
AcDbLine
 10
717.874695
 20
60.690727
 30
0.0
 11
717.874695
 21
63.190727
 31
0.0
210
0.0
220
0.0
230
1.0
  0
LINE
  5
231
100
AcDbEntity
  8
0
 62
     7
100
AcDbLine
 10
1042.874756
 20
110.690727
 30
0.0
 11
717.874695
 21
110.690727
 31
0.0
210
0.0
220
0.0
230
1.0
  0
LINE
  5
232
100
AcDbEntity
  8
0
 62
     7
100
AcDbLine
 10
1042.874756
 20
108.190727
 30
0.0
 11
717.874695
 21
108.190727
 31
0.0
210
0.0
220
0.0
230
1.0
  0
LINE
  5
233
100
AcDbEntity
  8
0
 62
     7
 48
0.0625
100
AcDbLine
 10
717.874695
 20
108.190727
 30
0.0
 11
717.874695
 21
110.690727
 31
0.0
210
0.0
220
0.0
230
1.0
  0
LINE
  5
234
100
AcDbEntity
  8
0
 62
     7
100
AcDbLine
 10
1042.874756
 20
108.190727
 30
0.0
 11
717.874695
 21
108.190727
 31
0.0
210
0.0
220
0.0
230
1.0
  0
LINE
  5
235
100
AcDbEntity
  8
0
 62
     7
100
AcDbLine
 10
717.874695
 20
63.190727
 30
0.0
 11
717.874695
 21
108.190727
 31
0.0
210
0.0
220
0.0
230
1.0
  0
LINE
  5
236
100
AcDbEntity
  8
0
 62
     7
 48
0.36875
100
AcDbLine
 10
1059.124756
 20
88.940727
 30
0.0
 11
1073.874756
 21
88.940727
 31
0.0
210
0.0
220
0.0
230
1.0
  0
LINE
  5
237
100
AcDbEntity
  8
0
 62
     7
 48
0.36875
100
AcDbLine
 10
1073.874756
 20
82.440727
 30
0.0
 11
1059.124756
 21
82.440727
 31
0.0
210
0.0
220
0.0
230
1.0
  0
ARC
  5
238
100
AcDbEntity
  8
0
 62
     7
100
AcDbCircle
 10
1059.124756
 20
85.690727
 30
0.0
 40
3.25
210
0.0
220
0.0
230
1.0
100
AcDbArc
 50
90.000003
 51
269.999997
  0
LINE
  5
239
100
AcDbEntity
  8
0
 62
     7
 48
0.05
100
AcDbLine
 10
1045.874756
 20
110.690727
 30
0.0
 11
1047.874756
 21
110.690727
 31
0.0
210
0.0
220
0.0
230
1.0
  0
LINE
  5
23A
100
AcDbEntity
  8
0
 62
     7
 48
0.05
100
AcDbLine
 10
1045.874756
 20
60.690727
 30
0.0
 11
1047.874756
 21
60.690727
 31
0.0
210
0.0
220
0.0
230
1.0
  0
LINE
  5
23B
100
AcDbEntity
  8
0
 62
     7
 48
0.05
100
AcDbLine
 10
1043.874756
 20
62.690727
 30
0.0
 11
1043.874756
 21
60.690727
 31
0.0
210
0.0
220
0.0
230
1.0
  0
LINE
  5
23C
100
AcDbEntity
  8
0
 62
     7
 48
0.05
100
AcDbLine
 10
1045.874756
 20
60.690727
 30
0.0
 11
1043.874756
 21
60.690727
 31
0.0
210
0.0
220
0.0
230
1.0
  0
LINE
  5
23D
100
AcDbEntity
  8
0
 62
     7
 48
0.05
100
AcDbLine
 10
1045.874756
 20
62.690727
 30
0.0
 11
1045.874756
 21
60.690727
 31
0.0
210
0.0
220
0.0
230
1.0
  0
LINE
  5
23E
100
AcDbEntity
  8
0
 62
     7
100
AcDbLine
 10
1045.874756
 20
108.690727
 30
0.0
 11
1045.874756
 21
62.690727
 31
0.0
210
0.0
220
0.0
230
1.0
  0
LINE
  5
23F
100
AcDbEntity
  8
0
 62
     7
 48
0.05
100
AcDbLine
 10
1045.874756
 20
110.690727
 30
0.0
 11
1045.874756
 21
108.690727
 31
0.0
210
0.0
220
0.0
230
1.0
  0
LINE
  5
240
100
AcDbEntity
  8
0
 62
     7
100
AcDbLine
 10
1043.874756
 20
108.690727
 30
0.0
 11
1043.874756
 21
62.690727
 31
0.0
210
0.0
220
0.0
230
1.0
  0
LINE
  5
241
100
AcDbEntity
  8
0
 62
     7
 48
0.05
100
AcDbLine
 10
1043.874756
 20
110.690727
 30
0.0
 11
1043.874756
 21
108.690727
 31
0.0
210
0.0
220
0.0
230
1.0
  0
LINE
  5
242
100
AcDbEntity
  8
0
 62
     7
 48
0.05
100
AcDbLine
 10
1045.874756
 20
110.690727
 30
0.0
 11
1043.874756
 21
110.690727
 31
0.0
210
0.0
220
0.0
230
1.0
  0
LINE
  5
243
100
AcDbEntity
  8
0
 62
     7
 48
0.49375
100
AcDbLine
 10
1073.874756
 20
108.690727
 30
0.0
 11
1073.874756
 21
88.940727
 31
0.0
210
0.0
220
0.0
230
1.0
  0
LINE
  5
244
100
AcDbEntity
  8
0
 62
     7
100
AcDbLine
 10
1047.874756
 20
110.690727
 30
0.0
 11
1071.874756
 21
110.690727
 31
0.0
210
0.0
220
0.0
230
1.0
  0
ARC
  5
245
100
AcDbEntity
  8
0
 62
     7
100
AcDbCircle
 10
1071.874756
 20
108.690727
 30
0.0
 40
2.0
210
0.0
220
0.0
230
1.0
100
AcDbArc
 50
360.0
 51
90.000003
  0
LINE
  5
246
100
AcDbEntity
  8
0
 62
     7
 48
0.49375
100
AcDbLine
 10
1073.874756
 20
82.440727
 30
0.0
 11
1073.874756
 21
62.690727
 31
0.0
210
0.0
220
0.0
230
1.0
  0
LINE
  5
247
100
AcDbEntity
  8
0
 62
     7
100
AcDbLine
 10
1047.874756
 20
60.690727
 30
0.0
 11
1071.874756
 21
60.690727
 31
0.0
210
0.0
220
0.0
230
1.0
  0
ARC
  5
248
100
AcDbEntity
  8
0
 62
     7
100
AcDbCircle
 10
1071.874756
 20
62.690727
 30
0.0
 40
2.0
210
0.0
220
0.0
230
1.0
100
AcDbArc
 50
269.999997
 51
360.0
  0
LINE
  5
249
100
AcDbEntity
  8
0
 62
     7
 48
0.125
100
AcDbLine
 10
815.574707
 20
223.190735
 30
0.0
 11
820.574707
 21
223.190735
 31
0.0
210
0.0
220
0.0
230
1.0
  0
LINE
  5
24A
100
AcDbEntity
  8
0
 62
     7
 48
0.125
100
AcDbLine
 10
815.574707
 20
218.190735
 30
0.0
 11
820.574707
 21
218.190735
 31
0.0
210
0.0
220
0.0
230
1.0
  0
ARC
  5
24B
100
AcDbEntity
  8
0
 62
     7
100
AcDbCircle
 10
820.574707
 20
202.690735
 30
0.0
 40
20.5
210
0.0
220
0.0
230
1.0
100
AcDbArc
 50
360.0
 51
90.000003
  0
ARC
  5
24C
100
AcDbEntity
  8
0
 62
     7
100
AcDbCircle
 10
820.574707
 20
202.690735
 30
0.0
 40
15.5
210
0.0
220
0.0
230
1.0
100
AcDbArc
 50
360.0
 51
90.000003
  0
LINE
  5
24D
100
AcDbEntity
  8
0
 62
     7
 48
0.112772
100
AcDbLine
 10
841.074707
 20
202.690735
 30
0.0
 11
841.074707
 21
198.17984
 31
0.0
210
0.0
220
0.0
230
1.0
  0
LINE
  5
24E
100
AcDbEntity
  8
0
 62
     7
 48
0.46215
100
AcDbLine
 10
841.074707
 20
193.176727
 30
0.0
 11
841.074707
 21
174.690735
 31
0.0
210
0.0
220
0.0
230
1.0
  0
LINE
  5
24F
100
AcDbEntity
  8
0
 62
     7
 48
0.1125
100
AcDbLine
 10
836.074707
 20
202.690735
 30
0.0
 11
836.074707
 21
198.190735
 31
0.0
210
0.0
220
0.0
230
1.0
  0
LINE
  5
250
100
AcDbEntity
  8
0
 62
     7
 48
0.4625
100
AcDbLine
 10
836.074707
 20
193.190735
 30
0.0
 11
836.074707
 21
174.690735
 31
0.0
210
0.0
220
0.0
230
1.0
  0
ARC
  5
251
100
AcDbEntity
  8
0
 62
     7
100
AcDbCircle
 10
820.574707
 20
174.690735
 30
0.0
 40
20.5
210
0.0
220
0.0
230
1.0
100
AcDbArc
 50
269.999997
 51
0.0
  0
ARC
  5
252
100
AcDbEntity
  8
0
 62
     7
100
AcDbCircle
 10
820.574707
 20
174.690735
 30
0.0
 40
15.5
210
0.0
220
0.0
230
1.0
100
AcDbArc
 50
269.999997
 51
0.0
  0
LINE
  5
253
100
AcDbEntity
  8
0
 62
     7
 48
0.13
100
AcDbLine
 10
815.374695
 20
154.190735
 30
0.0
 11
820.574707
 21
154.190735
 31
0.0
210
0.0
220
0.0
230
1.0
  0
LINE
  5
254
100
AcDbEntity
  8
0
 62
     7
 48
0.13
100
AcDbLine
 10
815.374695
 20
159.190735
 30
0.0
 11
820.574707
 21
159.190735
 31
0.0
210
0.0
220
0.0
230
1.0
  0
ARC
  5
255
100
AcDbEntity
  8
0
 62
     7
100
AcDbCircle
 10
815.374695
 20
136.690735
 30
0.0
 40
17.5
210
0.0
220
0.0
230
1.0
100
AcDbArc
 50
90.000003
 51
180.000005
  0
ARC
  5
256
100
AcDbEntity
  8
0
 62
     7
100
AcDbCircle
 10
815.374695
 20
136.690735
 30
0.0
 40
22.5
210
0.0
220
0.0
230
1.0
100
AcDbArc
 50
90.000003
 51
180.000005
  0
LINE
  5
257
100
AcDbEntity
  8
0
 62
     7
 48
0.15
100
AcDbLine
 10
797.874695
 20
130.690735
 30
0.0
 11
797.874695
 21
136.690735
 31
0.0
210
0.0
220
0.0
230
1.0
  0
LINE
  5
258
100
AcDbEntity
  8
0
 62
     7
 48
0.15
100
AcDbLine
 10
792.874695
 20
130.690735
 30
0.0
 11
792.874695
 21
136.690735
 31
0.0
210
0.0
220
0.0
230
1.0
  0
LINE
  5
259
100
AcDbEntity
  8
0
 62
     7
 48
0.011937
100
AcDbLine
 10
798.797241
 20
130.690735
 30
0.0
 11
799.274719
 21
130.690735
 31
0.0
210
0.0
220
0.0
230
1.0
  0
LINE
  5
25A
100
AcDbEntity
  8
0
 62
     7
 48
0.183064
100
AcDbLine
 10
791.47467
 20
130.690735
 30
0.0
 11
798.797241
 21
130.690735
 31
0.0
210
0.0
220
0.0
230
1.0
  0
LINE
  5
25B
100
AcDbEntity
  8
0
 62
     7
 48
0.405
100
AcDbLine
 10
791.131165
 20
110.690727
 30
0.0
 11
791.131165
 21
126.890732
 31
0.0
210
0.0
220
0.0
230
1.0
  0
LINE
  5
25C
100
AcDbEntity
  8
0
 62
     7
 48
0.405
100
AcDbLine
 10
799.618225
 20
110.690727
 30
0.0
 11
799.618225
 21
126.890732
 31
0.0
210
0.0
220
0.0
230
1.0
  0
LINE
  5
25D
100
AcDbEntity
  8
0
 62
     7
 48
0.212177
100
AcDbLine
 10
791.131165
 20
126.890732
 30
0.0
 11
799.618225
 21
126.890732
 31
0.0
210
0.0
220
0.0
230
1.0
  0
LINE
  5
25E
100
AcDbEntity
  8
0
 62
     7
 48
0.405
100
AcDbLine
 10
803.861755
 20
110.690727
 30
0.0
 11
803.861755
 21
126.890732
 31
0.0
210
0.0
220
0.0
230
1.0
  0
LINE
  5
25F
100
AcDbEntity
  8
0
 62
     7
 48
0.106088
100
AcDbLine
 10
799.618225
 20
126.890732
 30
0.0
 11
803.861755
 21
126.890732
 31
0.0
210
0.0
220
0.0
230
1.0
  0
LINE
  5
260
100
AcDbEntity
  8
0
 62
     7
 48
0.405
100
AcDbLine
 10
786.887634
 20
110.690727
 30
0.0
 11
786.887634
 21
126.890732
 31
0.0
210
0.0
220
0.0
230
1.0
  0
LINE
  5
261
100
AcDbEntity
  8
0
 62
     7
 48
0.106088
100
AcDbLine
 10
786.887634
 20
126.890732
 30
0.0
 11
791.131165
 21
126.890732
 31
0.0
210
0.0
220
0.0
230
1.0
  0
LINE
  5
262
100
AcDbEntity
  8
0
 62
     7
 48
0.274596
100
AcDbLine
 10
815.574707
 20
214.840729
 30
0.0
 11
815.574707
 21
225.824585
 31
0.0
210
0.0
220
0.0
230
1.0
  0
LINE
  5
263
100
AcDbEntity
  8
0
 62
     7
 48
0.017904
100
AcDbLine
 10
815.574707
 20
225.824585
 30
0.0
 11
815.574707
 21
226.540726
 31
0.0
210
0.0
220
0.0
230
1.0
  0
LINE
  5
264
100
AcDbEntity
  8
0
 62
     7
 48
0.42715
100
AcDbLine
 10
780.574707
 20
211.590729
 30
0.0
 11
780.574707
 21
228.676727
 31
0.0
210
0.0
220
0.0
230
1.0
  0
LINE
  5
265
100
AcDbEntity
  8
0
 62
     7
 48
0.02785
100
AcDbLine
 10
780.574707
 20
228.676727
 30
0.0
 11
780.574707
 21
229.790726
 31
0.0
210
0.0
220
0.0
230
1.0
  0
LINE
  5
266
100
AcDbEntity
  8
0
 62
     7
 48
0.02785
100
AcDbLine
 10
791.574707
 20
228.676727
 30
0.0
 11
791.574707
 21
229.790726
 31
0.0
210
0.0
220
0.0
230
1.0
  0
LINE
  5
267
100
AcDbEntity
  8
0
 62
     7
 48
0.42715
100
AcDbLine
 10
791.574707
 20
211.590729
 30
0.0
 11
791.574707
 21
228.676727
 31
0.0
210
0.0
220
0.0
230
1.0
  0
LINE
  5
268
100
AcDbEntity
  8
0
 62
     7
 48
0.022953
100
AcDbLine
 10
809.574707
 20
227.272598
 30
0.0
 11
809.574707
 21
228.190735
 31
0.0
210
0.0
220
0.0
230
1.0
  0
LINE
  5
269
100
AcDbEntity
  8
0
 62
     7
 48
0.352047
100
AcDbLine
 10
809.574707
 20
213.190735
 30
0.0
 11
809.574707
 21
227.272598
 31
0.0
210
0.0
220
0.0
230
1.0
  0
LINE
  5
26A
100
AcDbEntity
  8
0
 62
     7
 48
0.022953
100
AcDbLine
 10
800.97467
 20
227.272598
 30
0.0
 11
800.97467
 21
228.190735
 31
0.0
210
0.0
220
0.0
230
1.0
  0
LINE
  5
26B
100
AcDbEntity
  8
0
 62
     7
 48
0.352047
100
AcDbLine
 10
800.97467
 20
213.190735
 30
0.0
 11
800.97467
 21
227.272598
 31
0.0
210
0.0
220
0.0
230
1.0
  0
LINE
  5
26C
100
AcDbEntity
  8
0
 62
     7
 48
0.02
100
AcDbLine
 10
788.47467
 20
127.690727
 30
0.0
 11
788.47467
 21
126.890732
 31
0.0
210
0.0
220
0.0
230
1.0
  0
ARC
  5
26D
100
AcDbEntity
  8
0
 62
     7
100
AcDbCircle
 10
791.47467
 20
127.690727
 30
0.0
 40
3.0
210
0.0
220
0.0
230
1.0
100
AcDbArc
 50
90.000003
 51
179.999995
  0
LINE
  5
26E
100
AcDbEntity
  8
0
 62
     7
 48
0.02
100
AcDbLine
 10
802.274719
 20
127.690727
 30
0.0
 11
802.274719
 21
126.890732
 31
0.0
210
0.0
220
0.0
230
1.0
  0
ARC
  5
26F
100
AcDbEntity
  8
0
 62
     7
100
AcDbCircle
 10
799.274719
 20
127.690727
 30
0.0
 40
3.0
210
0.0
220
0.0
230
1.0
100
AcDbArc
 50
360.0
 51
90.000003
  0
LINE
  5
270
100
AcDbEntity
  8
0
 62
     7
 48
0.155569
100
AcDbLine
 10
815.574707
 20
226.540726
 30
0.0
 11
809.574707
 21
228.190735
 31
0.0
210
0.0
220
0.0
230
1.0
  0
LINE
  5
271
100
AcDbEntity
  8
0
 62
     7
 48
0.155568
100
AcDbLine
 10
815.574707
 20
214.840729
 30
0.0
 11
809.574707
 21
213.190735
 31
0.0
210
0.0
220
0.0
230
1.0
  0
ARC
  5
272
100
AcDbEntity
  8
0
 62
     7
100
AcDbCircle
 10
805.274719
 20
235.294891
 30
0.0
 40
8.304167
210
0.0
220
0.0
230
1.0
100
AcDbArc
 50
238.814371
 51
301.185624
  0
ARC
  5
273
100
AcDbEntity
  8
0
 62
     7
100
AcDbCircle
 10
805.274719
 20
206.086563
 30
0.0
 40
8.304167
210
0.0
220
0.0
230
1.0
100
AcDbArc
 50
58.814376
 51
121.185629
  0
LINE
  5
274
100
AcDbEntity
  8
0
 62
     7
 48
0.234999
100
AcDbLine
 10
791.574707
 20
228.190735
 30
0.0
 11
800.97467
 21
228.190735
 31
0.0
210
0.0
220
0.0
230
1.0
  0
LINE
  5
275
100
AcDbEntity
  8
0
 62
     7
 48
0.234999
100
AcDbLine
 10
791.574707
 20
213.190735
 30
0.0
 11
800.97467
 21
213.190735
 31
0.0
210
0.0
220
0.0
230
1.0
  0
LINE
  5
276
100
AcDbEntity
  8
0
 62
     7
 48
0.275
100
AcDbLine
 10
780.574707
 20
229.790726
 30
0.0
 11
791.574707
 21
229.790726
 31
0.0
210
0.0
220
0.0
230
1.0
  0
LINE
  5
277
100
AcDbEntity
  8
0
 62
     7
 48
0.275
100
AcDbLine
 10
780.574707
 20
211.590729
 30
0.0
 11
791.574707
 21
211.590729
 31
0.0
210
0.0
220
0.0
230
1.0
  0
LINE
  5
278
100
AcDbEntity
  8
0
 62
     7
100
AcDbLine
 10
815.574707
 20
198.190735
 30
0.0
 11
836.074707
 21
198.190735
 31
0.0
210
0.0
220
0.0
230
1.0
  0
LINE
  5
279
100
AcDbEntity
  8
0
 62
     7
100
AcDbLine
 10
815.574707
 20
193.190735
 30
0.0
 11
836.074707
 21
193.190735
 31
0.0
210
0.0
220
0.0
230
1.0
  0
ARC
  5
27A
100
AcDbEntity
  8
0
 62
     7
100
AcDbCircle
 10
840.374695
 20
175.690735
 30
0.0
 40
22.5
210
0.0
220
0.0
230
1.0
100
AcDbArc
 50
0.0
 51
88.21718
  0
ARC
  5
27B
100
AcDbEntity
  8
0
 62
     7
100
AcDbCircle
 10
840.374695
 20
175.690735
 30
0.0
 40
17.5
210
0.0
220
0.0
230
1.0
100
AcDbArc
 50
0.0
 51
87.707559
  0
LINE
  5
27C
100
AcDbEntity
  8
0
 62
     7
 48
0.2
100
AcDbLine
 10
862.874695
 20
175.690735
 30
0.0
 11
862.874695
 21
167.690735
 31
0.0
210
0.0
220
0.0
230
1.0
  0
LINE
  5
27D
100
AcDbEntity
  8
0
 62
     7
 48
0.2
100
AcDbLine
 10
857.874695
 20
175.690735
 30
0.0
 11
857.874695
 21
167.690735
 31
0.0
210
0.0
220
0.0
230
1.0
  0
ARC
  5
27E
100
AcDbEntity
  8
0
 62
     7
100
AcDbCircle
 10
840.374695
 20
167.690735
 30
0.0
 40
22.5
210
0.0
220
0.0
230
1.0
100
AcDbArc
 50
269.999997
 51
360.0
  0
ARC
  5
27F
100
AcDbEntity
  8
0
 62
     7
100
AcDbCircle
 10
840.374695
 20
167.690735
 30
0.0
 40
17.5
210
0.0
220
0.0
230
1.0
100
AcDbArc
 50
269.999997
 51
360.0
  0
LINE
  5
280
100
AcDbEntity
  8
0
 62
     7
 48
0.325
100
AcDbLine
 10
827.374695
 20
145.190735
 30
0.0
 11
840.374695
 21
145.190735
 31
0.0
210
0.0
220
0.0
230
1.0
  0
LINE
  5
281
100
AcDbEntity
  8
0
 62
     7
 48
0.325
100
AcDbLine
 10
827.374695
 20
150.190735
 30
0.0
 11
840.374695
 21
150.190735
 31
0.0
210
0.0
220
0.0
230
1.0
  0
ARC
  5
282
100
AcDbEntity
  8
0
 62
     7
100
AcDbCircle
 10
827.374695
 20
135.690735
 30
0.0
 40
9.5
210
0.0
220
0.0
230
1.0
100
AcDbArc
 50
90.000003
 51
180.000005
  0
ARC
  5
283
100
AcDbEntity
  8
0
 62
     7
100
AcDbCircle
 10
827.374695
 20
135.690735
 30
0.0
 40
14.5
210
0.0
220
0.0
230
1.0
100
AcDbArc
 50
90.000003
 51
180.000005
  0
LINE
  5
284
100
AcDbEntity
  8
0
 62
     7
 48
0.125
100
AcDbLine
 10
817.874695
 20
130.690735
 30
0.0
 11
817.874695
 21
135.690735
 31
0.0
210
0.0
220
0.0
230
1.0
  0
LINE
  5
285
100
AcDbEntity
  8
0
 62
     7
 48
0.125
100
AcDbLine
 10
812.874695
 20
130.690735
 30
0.0
 11
812.874695
 21
135.690735
 31
0.0
210
0.0
220
0.0
230
1.0
  0
LINE
  5
286
100
AcDbEntity
  8
0
 62
     7
 48
0.011937
100
AcDbLine
 10
818.797241
 20
130.690735
 30
0.0
 11
819.274719
 21
130.690735
 31
0.0
210
0.0
220
0.0
230
1.0
  0
LINE
  5
287
100
AcDbEntity
  8
0
 62
     7
 48
0.183064
100
AcDbLine
 10
811.47467
 20
130.690735
 30
0.0
 11
818.797241
 21
130.690735
 31
0.0
210
0.0
220
0.0
230
1.0
  0
LINE
  5
288
100
AcDbEntity
  8
0
 62
     7
 48
0.405
100
AcDbLine
 10
811.131165
 20
110.690727
 30
0.0
 11
811.131165
 21
126.890732
 31
0.0
210
0.0
220
0.0
230
1.0
  0
LINE
  5
289
100
AcDbEntity
  8
0
 62
     7
 48
0.405
100
AcDbLine
 10
819.618225
 20
110.690727
 30
0.0
 11
819.618225
 21
126.890732
 31
0.0
210
0.0
220
0.0
230
1.0
  0
LINE
  5
28A
100
AcDbEntity
  8
0
 62
     7
 48
0.212177
100
AcDbLine
 10
811.131165
 20
126.890732
 30
0.0
 11
819.618225
 21
126.890732
 31
0.0
210
0.0
220
0.0
230
1.0
  0
LINE
  5
28B
100
AcDbEntity
  8
0
 62
     7
 48
0.405
100
AcDbLine
 10
823.861755
 20
110.690727
 30
0.0
 11
823.861755
 21
126.890732
 31
0.0
210
0.0
220
0.0
230
1.0
  0
LINE
  5
28C
100
AcDbEntity
  8
0
 62
     7
 48
0.106088
100
AcDbLine
 10
819.618225
 20
126.890732
 30
0.0
 11
823.861755
 21
126.890732
 31
0.0
210
0.0
220
0.0
230
1.0
  0
LINE
  5
28D
100
AcDbEntity
  8
0
 62
     7
 48
0.405
100
AcDbLine
 10
806.887634
 20
110.690727
 30
0.0
 11
806.887634
 21
126.890732
 31
0.0
210
0.0
220
0.0
230
1.0
  0
LINE
  5
28E
100
AcDbEntity
  8
0
 62
     7
 48
0.106088
100
AcDbLine
 10
806.887634
 20
126.890732
 30
0.0
 11
811.131165
 21
126.890732
 31
0.0
210
0.0
220
0.0
230
1.0
  0
LINE
  5
28F
100
AcDbEntity
  8
0
 62
     7
 48
0.274596
100
AcDbLine
 10
815.574707
 20
189.840729
 30
0.0
 11
815.574707
 21
200.824585
 31
0.0
210
0.0
220
0.0
230
1.0
  0
LINE
  5
290
100
AcDbEntity
  8
0
 62
     7
 48
0.017904
100
AcDbLine
 10
815.574707
 20
200.824585
 30
0.0
 11
815.574707
 21
201.540726
 31
0.0
210
0.0
220
0.0
230
1.0
  0
LINE
  5
291
100
AcDbEntity
  8
0
 62
     7
 48
0.42715
100
AcDbLine
 10
780.574707
 20
186.590729
 30
0.0
 11
780.574707
 21
203.676727
 31
0.0
210
0.0
220
0.0
230
1.0
  0
LINE
  5
292
100
AcDbEntity
  8
0
 62
     7
 48
0.02785
100
AcDbLine
 10
780.574707
 20
203.676727
 30
0.0
 11
780.574707
 21
204.790726
 31
0.0
210
0.0
220
0.0
230
1.0
  0
LINE
  5
293
100
AcDbEntity
  8
0
 62
     7
 48
0.02785
100
AcDbLine
 10
791.574707
 20
203.676727
 30
0.0
 11
791.574707
 21
204.790726
 31
0.0
210
0.0
220
0.0
230
1.0
  0
LINE
  5
294
100
AcDbEntity
  8
0
 62
     7
 48
0.42715
100
AcDbLine
 10
791.574707
 20
186.590729
 30
0.0
 11
791.574707
 21
203.676727
 31
0.0
210
0.0
220
0.0
230
1.0
  0
LINE
  5
295
100
AcDbEntity
  8
0
 62
     7
 48
0.022953
100
AcDbLine
 10
809.574707
 20
202.272598
 30
0.0
 11
809.574707
 21
203.190735
 31
0.0
210
0.0
220
0.0
230
1.0
  0
LINE
  5
296
100
AcDbEntity
  8
0
 62
     7
 48
0.352047
100
AcDbLine
 10
809.574707
 20
188.190735
 30
0.0
 11
809.574707
 21
202.272598
 31
0.0
210
0.0
220
0.0
230
1.0
  0
LINE
  5
297
100
AcDbEntity
  8
0
 62
     7
 48
0.022953
100
AcDbLine
 10
800.97467
 20
202.272598
 30
0.0
 11
800.97467
 21
203.190735
 31
0.0
210
0.0
220
0.0
230
1.0
  0
LINE
  5
298
100
AcDbEntity
  8
0
 62
     7
 48
0.352047
100
AcDbLine
 10
800.97467
 20
188.190735
 30
0.0
 11
800.97467
 21
202.272598
 31
0.0
210
0.0
220
0.0
230
1.0
  0
LINE
  5
299
100
AcDbEntity
  8
0
 62
     7
 48
0.02
100
AcDbLine
 10
808.47467
 20
127.690727
 30
0.0
 11
808.47467
 21
126.890732
 31
0.0
210
0.0
220
0.0
230
1.0
  0
ARC
  5
29A
100
AcDbEntity
  8
0
 62
     7
100
AcDbCircle
 10
811.47467
 20
127.690727
 30
0.0
 40
3.0
210
0.0
220
0.0
230
1.0
100
AcDbArc
 50
90.000003
 51
179.999995
  0
LINE
  5
29B
100
AcDbEntity
  8
0
 62
     7
 48
0.02
100
AcDbLine
 10
822.274719
 20
127.690727
 30
0.0
 11
822.274719
 21
126.890732
 31
0.0
210
0.0
220
0.0
230
1.0
  0
ARC
  5
29C
100
AcDbEntity
  8
0
 62
     7
100
AcDbCircle
 10
819.274719
 20
127.690727
 30
0.0
 40
3.0
210
0.0
220
0.0
230
1.0
100
AcDbArc
 50
360.0
 51
90.000003
  0
LINE
  5
29D
100
AcDbEntity
  8
0
 62
     7
 48
0.155569
100
AcDbLine
 10
815.574707
 20
201.540726
 30
0.0
 11
809.574707
 21
203.190735
 31
0.0
210
0.0
220
0.0
230
1.0
  0
LINE
  5
29E
100
AcDbEntity
  8
0
 62
     7
 48
0.155568
100
AcDbLine
 10
815.574707
 20
189.840729
 30
0.0
 11
809.574707
 21
188.190735
 31
0.0
210
0.0
220
0.0
230
1.0
  0
ARC
  5
29F
100
AcDbEntity
  8
0
 62
     7
100
AcDbCircle
 10
805.274719
 20
210.294891
 30
0.0
 40
8.304167
210
0.0
220
0.0
230
1.0
100
AcDbArc
 50
238.814371
 51
301.185624
  0
ARC
  5
2A0
100
AcDbEntity
  8
0
 62
     7
100
AcDbCircle
 10
805.274719
 20
181.086563
 30
0.0
 40
8.304167
210
0.0
220
0.0
230
1.0
100
AcDbArc
 50
58.814376
 51
121.185629
  0
LINE
  5
2A1
100
AcDbEntity
  8
0
 62
     7
 48
0.234999
100
AcDbLine
 10
791.574707
 20
203.190735
 30
0.0
 11
800.97467
 21
203.190735
 31
0.0
210
0.0
220
0.0
230
1.0
  0
LINE
  5
2A2
100
AcDbEntity
  8
0
 62
     7
 48
0.234999
100
AcDbLine
 10
791.574707
 20
188.190735
 30
0.0
 11
800.97467
 21
188.190735
 31
0.0
210
0.0
220
0.0
230
1.0
  0
LINE
  5
2A3
100
AcDbEntity
  8
0
 62
     7
 48
0.275
100
AcDbLine
 10
780.574707
 20
204.790726
 30
0.0
 11
791.574707
 21
204.790726
 31
0.0
210
0.0
220
0.0
230
1.0
  0
LINE
  5
2A4
100
AcDbEntity
  8
0
 62
     7
 48
0.275
100
AcDbLine
 10
780.574707
 20
186.590729
 30
0.0
 11
791.574707
 21
186.590729
 31
0.0
210
0.0
220
0.0
230
1.0
  0
LINE
  5
2A5
100
AcDbEntity
  8
0
 62
     7
 48
0.025
100
AcDbLine
 10
717.874695
 20
110.690727
 30
0.0
 11
716.874695
 21
110.690727
 31
0.0
210
0.0
220
0.0
230
1.0
  0
LINE
  5
2A6
100
AcDbEntity
  8
0
 62
     7
 48
0.025
100
AcDbLine
 10
717.874695
 20
60.690727
 30
0.0
 11
716.874695
 21
60.690727
 31
0.0
210
0.0
220
0.0
230
1.0
  0
LINE
  5
2A7
100
AcDbEntity
  8
0
 62
     7
100
AcDbLine
 10
717.874695
 20
110.690727
 30
0.0
 11
717.874695
 21
60.690727
 31
0.0
210
0.0
220
0.0
230
1.0
  0
LINE
  5
2A8
100
AcDbEntity
  8
0
 62
     7
100
AcDbLine
 10
716.874695
 20
110.690727
 30
0.0
 11
716.874695
 21
60.690727
 31
0.0
210
0.0
220
0.0
230
1.0
  0
LINE
  5
2A9
100
AcDbEntity
  8
0
 62
     7
 48
0.025
100
AcDbLine
 10
1043.874756
 20
110.690727
 30
0.0
 11
1042.874756
 21
110.690727
 31
0.0
210
0.0
220
0.0
230
1.0
  0
LINE
  5
2AA
100
AcDbEntity
  8
0
 62
     7
 48
0.025
100
AcDbLine
 10
1043.874756
 20
60.690727
 30
0.0
 11
1042.874756
 21
60.690727
 31
0.0
210
0.0
220
0.0
230
1.0
  0
LINE
  5
2AB
100
AcDbEntity
  8
0
 62
     7
100
AcDbLine
 10
1043.874756
 20
110.690727
 30
0.0
 11
1043.874756
 21
60.690727
 31
0.0
210
0.0
220
0.0
230
1.0
  0
LINE
  5
2AC
100
AcDbEntity
  8
0
 62
     7
100
AcDbLine
 10
1042.874756
 20
110.690727
 30
0.0
 11
1042.874756
 21
60.690727
 31
0.0
210
0.0
220
0.0
230
1.0
  0
LINE
  5
2AD
100
AcDbEntity
  8
0
 62
     7
 48
0.025
100
AcDbLine
 10
775.874695
 20
782.690735
 30
0.0
 11
775.874695
 21
783.690735
 31
0.0
210
0.0
220
0.0
230
1.0
  0
LINE
  5
2AE
100
AcDbEntity
  8
0
 62
     7
 48
0.025
100
AcDbLine
 10
725.874695
 20
782.690735
 30
0.0
 11
725.874695
 21
783.690735
 31
0.0
210
0.0
220
0.0
230
1.0
  0
LINE
  5
2AF
100
AcDbEntity
  8
0
 62
     7
100
AcDbLine
 10
775.874695
 20
782.690735
 30
0.0
 11
725.874695
 21
782.690735
 31
0.0
210
0.0
220
0.0
230
1.0
  0
LINE
  5
2B0
100
AcDbEntity
  8
0
 62
     7
100
AcDbLine
 10
775.874695
 20
783.690735
 30
0.0
 11
725.874695
 21
783.690735
 31
0.0
210
0.0
220
0.0
230
1.0
  0
LINE
  5
2B1
100
AcDbEntity
  8
0
 62
     7
 48
0.025
100
AcDbLine
 10
775.874695
 20
59.690727
 30
0.0
 11
775.874695
 21
60.690727
 31
0.0
210
0.0
220
0.0
230
1.0
  0
LINE
  5
2B2
100
AcDbEntity
  8
0
 62
     7
 48
0.025
100
AcDbLine
 10
725.874695
 20
59.690727
 30
0.0
 11
725.874695
 21
60.690727
 31
0.0
210
0.0
220
0.0
230
1.0
  0
LINE
  5
2B3
100
AcDbEntity
  8
0
 62
     7
100
AcDbLine
 10
775.874695
 20
59.690727
 30
0.0
 11
725.874695
 21
59.690727
 31
0.0
210
0.0
220
0.0
230
1.0
  0
LINE
  5
2B4
100
AcDbEntity
  8
0
 62
     7
100
AcDbLine
 10
775.874695
 20
60.690727
 30
0.0
 11
725.874695
 21
60.690727
 31
0.0
210
0.0
220
0.0
230
1.0
  0
LINE
  5
2B5
100
AcDbEntity
  8
0
 62
     7
100
AcDbLine
 10
1246.083008
 20
110.690727
 30
0.0
 11
1246.083008
 21
782.690735
 31
0.0
210
0.0
220
0.0
230
1.0
  0
LINE
  5
2B6
100
AcDbEntity
  8
0
 62
     7
100
AcDbLine
 10
1196.083008
 20
110.690727
 30
0.0
 11
1196.083008
 21
782.690735
 31
0.0
210
0.0
220
0.0
230
1.0
  0
LINE
  5
2B7
100
AcDbEntity
  8
0
 62
     7
100
AcDbLine
 10
1196.083008
 20
782.690735
 30
0.0
 11
1246.083008
 21
782.690735
 31
0.0
210
0.0
220
0.0
230
1.0
  0
ARC
  5
2B8
100
AcDbEntity
  8
0
 62
     7
100
AcDbCircle
 10
1249.083008
 20
55.690727
 30
0.0
 40
4.0
210
0.0
220
0.0
230
1.0
100
AcDbArc
 50
0.0
 51
90.000003
  0
ARC
  5
2B9
100
AcDbEntity
  8
0
 62
     7
100
AcDbCircle
 10
1249.083008
 20
55.690727
 30
0.0
 40
2.0
210
0.0
220
0.0
230
1.0
100
AcDbArc
 50
0.0
 51
90.000003
  0
LINE
  5
2BA
100
AcDbEntity
  8
0
 62
     7
100
AcDbLine
 10
1198.083008
 20
57.690727
 30
0.0
 11
1249.083008
 21
57.690727
 31
0.0
210
0.0
220
0.0
230
1.0
  0
LINE
  5
2BB
100
AcDbEntity
  8
0
 62
     7
 48
0.05
100
AcDbLine
 10
1198.083008
 20
57.690727
 30
0.0
 11
1196.083008
 21
57.690727
 31
0.0
210
0.0
220
0.0
230
1.0
  0
LINE
  5
2BC
100
AcDbEntity
  8
0
 62
     7
100
AcDbLine
 10
1198.083008
 20
59.690727
 30
0.0
 11
1249.083008
 21
59.690727
 31
0.0
210
0.0
220
0.0
230
1.0
  0
LINE
  5
2BD
100
AcDbEntity
  8
0
 62
     7
 48
0.05
100
AcDbLine
 10
1196.083008
 20
57.690727
 30
0.0
 11
1196.083008
 21
59.690727
 31
0.0
210
0.0
220
0.0
230
1.0
  0
LINE
  5
2BE
100
AcDbEntity
  8
0
 62
     7
 48
0.05
100
AcDbLine
 10
1253.083008
 20
29.690727
 30
0.0
 11
1251.083008
 21
29.690727
 31
0.0
210
0.0
220
0.0
230
1.0
  0
LINE
  5
2BF
100
AcDbEntity
  8
0
 62
     7
100
AcDbLine
 10
1251.083008
 20
55.690727
 30
0.0
 11
1251.083008
 21
31.690727
 31
0.0
210
0.0
220
0.0
230
1.0
  0
LINE
  5
2C0
100
AcDbEntity
  8
0
 62
     7
100
AcDbLine
 10
1253.083008
 20
55.690727
 30
0.0
 11
1253.083008
 21
31.690727
 31
0.0
210
0.0
220
0.0
230
1.0
  0
LINE
  5
2C1
100
AcDbEntity
  8
0
 62
     7
 48
0.05
100
AcDbLine
 10
1251.083008
 20
29.690727
 30
0.0
 11
1251.083008
 21
31.690727
 31
0.0
210
0.0
220
0.0
230
1.0
  0
LINE
  5
2C2
100
AcDbEntity
  8
0
 62
     7
 48
0.05
100
AcDbLine
 10
1253.083008
 20
29.690727
 30
0.0
 11
1253.083008
 21
31.690727
 31
0.0
210
0.0
220
0.0
230
1.0
  0
ARC
  5
2C3
100
AcDbEntity
  8
0
 62
     7
100
AcDbCircle
 10
1249.083008
 20
787.690735
 30
0.0
 40
4.0
210
0.0
220
0.0
230
1.0
100
AcDbArc
 50
269.999997
 51
360.0
  0
ARC
  5
2C4
100
AcDbEntity
  8
0
 62
     7
100
AcDbCircle
 10
1249.083008
 20
787.690735
 30
0.0
 40
2.0
210
0.0
220
0.0
230
1.0
100
AcDbArc
 50
269.999997
 51
360.0
  0
LINE
  5
2C5
100
AcDbEntity
  8
0
 62
     7
 48
0.05
100
AcDbLine
 10
1196.083008
 20
785.690735
 30
0.0
 11
1198.083008
 21
785.690735
 31
0.0
210
0.0
220
0.0
230
1.0
  0
LINE
  5
2C6
100
AcDbEntity
  8
0
 62
     7
 48
0.05
100
AcDbLine
 10
1196.083008
 20
785.690735
 30
0.0
 11
1196.083008
 21
783.690735
 31
0.0
210
0.0
220
0.0
230
1.0
  0
LINE
  5
2C7
100
AcDbEntity
  8
0
 62
     7
100
AcDbLine
 10
1198.083008
 20
785.690735
 30
0.0
 11
1249.083008
 21
785.690735
 31
0.0
210
0.0
220
0.0
230
1.0
  0
LINE
  5
2C8
100
AcDbEntity
  8
0
 62
     7
100
AcDbLine
 10
1198.083008
 20
783.690735
 30
0.0
 11
1249.083008
 21
783.690735
 31
0.0
210
0.0
220
0.0
230
1.0
  0
LINE
  5
2C9
100
AcDbEntity
  8
0
 62
     7
 48
0.05
100
AcDbLine
 10
1253.083008
 20
813.690735
 30
0.0
 11
1251.083008
 21
813.690735
 31
0.0
210
0.0
220
0.0
230
1.0
  0
LINE
  5
2CA
100
AcDbEntity
  8
0
 62
     7
100
AcDbLine
 10
1251.083008
 20
787.690735
 30
0.0
 11
1251.083008
 21
811.690735
 31
0.0
210
0.0
220
0.0
230
1.0
  0
LINE
  5
2CB
100
AcDbEntity
  8
0
 62
     7
100
AcDbLine
 10
1253.083008
 20
787.690735
 30
0.0
 11
1253.083008
 21
811.690735
 31
0.0
210
0.0
220
0.0
230
1.0
  0
LINE
  5
2CC
100
AcDbEntity
  8
0
 62
     7
 48
0.05
100
AcDbLine
 10
1253.083008
 20
811.690735
 30
0.0
 11
1253.083008
 21
813.690735
 31
0.0
210
0.0
220
0.0
230
1.0
  0
LINE
  5
2CD
100
AcDbEntity
  8
0
 62
     7
 48
0.05
100
AcDbLine
 10
1251.083008
 20
811.690735
 30
0.0
 11
1251.083008
 21
813.690735
 31
0.0
210
0.0
220
0.0
230
1.0
  0
LINE
  5
2CE
100
AcDbEntity
  8
0
 62
     7
100
AcDbLine
 10
1201.083008
 20
295.690735
 30
0.0
 11
1241.083008
 21
295.690735
 31
0.0
210
0.0
220
0.0
230
1.0
  0
LINE
  5
2CF
100
AcDbEntity
  8
0
 62
     7
100
AcDbLine
 10
1201.083008
 20
180.690735
 30
0.0
 11
1201.083008
 21
295.690735
 31
0.0
210
0.0
220
0.0
230
1.0
  0
LINE
  5
2D0
100
AcDbEntity
  8
0
 62
     7
 48
0.4375
100
AcDbLine
 10
1218.583008
 20
180.690735
 30
0.0
 11
1201.083008
 21
180.690735
 31
0.0
210
0.0
220
0.0
230
1.0
  0
LINE
  5
2D1
100
AcDbEntity
  8
0
 62
     7
 48
0.4375
100
AcDbLine
 10
1241.083008
 20
180.690735
 30
0.0
 11
1223.583008
 21
180.690735
 31
0.0
210
0.0
220
0.0
230
1.0
  0
LINE
  5
2D2
100
AcDbEntity
  8
0
 62
     7
100
AcDbLine
 10
1241.083008
 20
295.690735
 30
0.0
 11
1241.083008
 21
180.690735
 31
0.0
210
0.0
220
0.0
230
1.0
  0
CIRCLE
  5
2D3
100
AcDbEntity
  8
0
 62
     7
100
AcDbCircle
 10
1206.032959
 20
290.140717
 30
0.0
 40
2.25
210
0.0
220
0.0
230
1.0
  0
CIRCLE
  5
2D4
100
AcDbEntity
  8
0
 62
     7
100
AcDbCircle
 10
1236.133057
 20
290.140717
 30
0.0
 40
2.25
210
0.0
220
0.0
230
1.0
  0
CIRCLE
  5
2D5
100
AcDbEntity
  8
0
 62
     7
100
AcDbCircle
 10
1236.133057
 20
238.190735
 30
0.0
 40
2.25
210
0.0
220
0.0
230
1.0
  0
CIRCLE
  5
2D6
100
AcDbEntity
  8
0
 62
     7
100
AcDbCircle
 10
1206.032959
 20
238.190735
 30
0.0
 40
2.25
210
0.0
220
0.0
230
1.0
  0
CIRCLE
  5
2D7
100
AcDbEntity
  8
0
 62
     7
100
AcDbCircle
 10
1236.133057
 20
186.240723
 30
0.0
 40
2.25
210
0.0
220
0.0
230
1.0
  0
CIRCLE
  5
2D8
100
AcDbEntity
  8
0
 62
     7
100
AcDbCircle
 10
1206.032959
 20
186.240723
 30
0.0
 40
2.25
210
0.0
220
0.0
230
1.0
  0
LINE
  5
2D9
100
AcDbEntity
  8
0
 62
     7
 48
0.418579
100
AcDbLine
 10
1212.711426
 20
260.190735
 30
0.0
 11
1229.45459
 21
260.190735
 31
0.0
210
0.0
220
0.0
230
1.0
  0
LINE
  5
2DA
100
AcDbEntity
  8
0
 62
     7
 48
0.418579
100
AcDbLine
 10
1204.339844
 20
274.690735
 30
0.0
 11
1212.711426
 21
260.190735
 31
0.0
210
0.0
220
0.0
230
1.0
  0
LINE
  5
2DB
100
AcDbEntity
  8
0
 62
     7
 48
0.418579
100
AcDbLine
 10
1212.711426
 20
289.190735
 30
0.0
 11
1204.339844
 21
274.690735
 31
0.0
210
0.0
220
0.0
230
1.0
  0
LINE
  5
2DC
100
AcDbEntity
  8
0
 62
     7
 48
0.418579
100
AcDbLine
 10
1229.45459
 20
289.190735
 30
0.0
 11
1212.711426
 21
289.190735
 31
0.0
210
0.0
220
0.0
230
1.0
  0
LINE
  5
2DD
100
AcDbEntity
  8
0
 62
     7
 48
0.418579
100
AcDbLine
 10
1237.826172
 20
274.690735
 30
0.0
 11
1229.45459
 21
289.190735
 31
0.0
210
0.0
220
0.0
230
1.0
  0
LINE
  5
2DE
100
AcDbEntity
  8
0
 62
     7
 48
0.418579
100
AcDbLine
 10
1229.45459
 20
260.190735
 30
0.0
 11
1237.826172
 21
274.690735
 31
0.0
210
0.0
220
0.0
230
1.0
  0
CIRCLE
  5
2DF
100
AcDbEntity
  8
0
 62
     7
100
AcDbCircle
 10
1218.160156
 20
276.378235
 30
0.0
 40
0.425
210
0.0
220
0.0
230
1.0
  0
CIRCLE
  5
2E0
100
AcDbEntity
  8
0
 62
     7
100
AcDbCircle
 10
1224.005859
 20
273.003235
 30
0.0
 40
0.425
210
0.0
220
0.0
230
1.0
  0
CIRCLE
  5
2E1
100
AcDbEntity
  8
0
 62
     7
100
AcDbCircle
 10
1221.083008
 20
271.315735
 30
0.0
 40
0.425
210
0.0
220
0.0
230
1.0
  0
CIRCLE
  5
2E2
100
AcDbEntity
  8
0
 62
     7
100
AcDbCircle
 10
1226.928711
 20
274.690735
 30
0.0
 40
0.425
210
0.0
220
0.0
230
1.0
  0
CIRCLE
  5
2E3
100
AcDbEntity
  8
0
 62
     7
100
AcDbCircle
 10
1221.083008
 20
278.065735
 30
0.0
 40
0.425
210
0.0
220
0.0
230
1.0
  0
CIRCLE
  5
2E4
100
AcDbEntity
  8
0
 62
     7
100
AcDbCircle
 10
1224.005859
 20
276.378235
 30
0.0
 40
0.425
210
0.0
220
0.0
230
1.0
  0
CIRCLE
  5
2E5
100
AcDbEntity
  8
0
 62
     7
100
AcDbCircle
 10
1226.928711
 20
271.315735
 30
0.0
 40
0.425
210
0.0
220
0.0
230
1.0
  0
CIRCLE
  5
2E6
100
AcDbEntity
  8
0
 62
     7
100
AcDbCircle
 10
1218.160156
 20
273.003235
 30
0.0
 40
0.425
210
0.0
220
0.0
230
1.0
  0
CIRCLE
  5
2E7
100
AcDbEntity
  8
0
 62
     7
100
AcDbCircle
 10
1218.160156
 20
269.628235
 30
0.0
 40
0.425
210
0.0
220
0.0
230
1.0
  0
CIRCLE
  5
2E8
100
AcDbEntity
  8
0
 62
     7
100
AcDbCircle
 10
1218.160156
 20
279.753235
 30
0.0
 40
0.425
210
0.0
220
0.0
230
1.0
  0
CIRCLE
  5
2E9
100
AcDbEntity
  8
0
 62
     7
100
AcDbCircle
 10
1224.005859
 20
269.628235
 30
0.0
 40
0.425
210
0.0
220
0.0
230
1.0
  0
CIRCLE
  5
2EA
100
AcDbEntity
  8
0
 62
     7
100
AcDbCircle
 10
1221.083008
 20
274.690735
 30
0.0
 40
0.425
210
0.0
220
0.0
230
1.0
  0
CIRCLE
  5
2EB
100
AcDbEntity
  8
0
 62
     7
100
AcDbCircle
 10
1226.928711
 20
278.065735
 30
0.0
 40
0.425
210
0.0
220
0.0
230
1.0
  0
CIRCLE
  5
2EC
100
AcDbEntity
  8
0
 62
     7
100
AcDbCircle
 10
1215.237305
 20
278.065735
 30
0.0
 40
0.425
210
0.0
220
0.0
230
1.0
  0
CIRCLE
  5
2ED
100
AcDbEntity
  8
0
 62
     7
100
AcDbCircle
 10
1221.083008
 20
267.940735
 30
0.0
 40
0.425
210
0.0
220
0.0
230
1.0
  0
CIRCLE
  5
2EE
100
AcDbEntity
  8
0
 62
     7
100
AcDbCircle
 10
1215.237305
 20
271.315735
 30
0.0
 40
0.425
210
0.0
220
0.0
230
1.0
  0
CIRCLE
  5
2EF
100
AcDbEntity
  8
0
 62
     7
100
AcDbCircle
 10
1215.237305
 20
274.690735
 30
0.0
 40
0.425
210
0.0
220
0.0
230
1.0
  0
CIRCLE
  5
2F0
100
AcDbEntity
  8
0
 62
     7
100
AcDbCircle
 10
1221.083008
 20
281.440735
 30
0.0
 40
0.425
210
0.0
220
0.0
230
1.0
  0
ARC
  5
2F1
100
AcDbEntity
  8
0
 62
     7
100
AcDbCircle
 10
1225.083008
 20
281.618927
 30
0.0
 40
0.8
210
0.0
220
0.0
230
1.0
100
AcDbArc
 50
149.999997
 51
329.999999
  0
CIRCLE
  5
2F2
100
AcDbEntity
  8
0
 62
     7
100
AcDbCircle
 10
1221.083008
 20
274.690735
 30
0.0
 40
11.45
210
0.0
220
0.0
230
1.0
  0
LINE
  5
2F3
100
AcDbEntity
  8
0
 62
     7
 48
0.030384
100
AcDbLine
 10
1224.390137
 20
282.018921
 30
0.0
 11
1224.997803
 21
283.071442
 31
0.0
210
0.0
220
0.0
230
1.0
  0
LINE
  5
2F4
100
AcDbEntity
  8
0
 62
     7
 48
0.030384
100
AcDbLine
 10
1225.775879
 20
281.218933
 30
0.0
 11
1226.383545
 21
282.271454
 31
0.0
210
0.0
220
0.0
230
1.0
  0
CIRCLE
  5
2F5
100
AcDbEntity
  8
0
 62
     7
100
AcDbCircle
 10
1221.083008
 20
274.690735
 30
0.0
 40
9.25
210
0.0
220
0.0
230
1.0
  0
LINE
  5
2F6
100
AcDbEntity
  8
0
 62
     7
 48
0.086163
100
AcDbLine
 10
1215.136475
 20
210.390717
 30
0.0
 11
1218.583008
 21
210.390717
 31
0.0
210
0.0
220
0.0
230
1.0
  0
LINE
  5
2F7
100
AcDbEntity
  8
0
 62
     7
 48
0.086169
100
AcDbLine
 10
1223.583008
 20
210.390717
 30
0.0
 11
1227.029785
 21
210.390717
 31
0.0
210
0.0
220
0.0
230
1.0
  0
LINE
  5
2F8
100
AcDbEntity
  8
0
 62
     7
 48
0.297337
100
AcDbLine
 10
1227.029785
 20
210.390717
 30
0.0
 11
1232.976563
 21
220.690735
 31
0.0
210
0.0
220
0.0
230
1.0
  0
LINE
  5
2F9
100
AcDbEntity
  8
0
 62
     7
 48
0.297336
100
AcDbLine
 10
1232.976563
 20
220.690735
 30
0.0
 11
1227.029785
 21
230.990723
 31
0.0
210
0.0
220
0.0
230
1.0
  0
LINE
  5
2FA
100
AcDbEntity
  8
0
 62
     7
 48
0.297333
100
AcDbLine
 10
1227.029785
 20
230.990723
 30
0.0
 11
1215.136475
 21
230.990723
 31
0.0
210
0.0
220
0.0
230
1.0
  0
LINE
  5
2FB
100
AcDbEntity
  8
0
 62
     7
 48
0.297336
100
AcDbLine
 10
1215.136475
 20
230.990723
 30
0.0
 11
1209.189697
 21
220.690735
 31
0.0
210
0.0
220
0.0
230
1.0
  0
LINE
  5
2FC
100
AcDbEntity
  8
0
 62
     7
 48
0.297337
100
AcDbLine
 10
1209.189697
 20
220.690735
 30
0.0
 11
1215.136475
 21
210.390717
 31
0.0
210
0.0
220
0.0
230
1.0
  0
LINE
  5
2FD
100
AcDbEntity
  8
0
 62
     7
 48
0.086163
100
AcDbLine
 10
1215.136475
 20
185.390717
 30
0.0
 11
1218.583008
 21
185.390717
 31
0.0
210
0.0
220
0.0
230
1.0
  0
LINE
  5
2FE
100
AcDbEntity
  8
0
 62
     7
 48
0.086169
100
AcDbLine
 10
1223.583008
 20
185.390717
 30
0.0
 11
1227.029785
 21
185.390717
 31
0.0
210
0.0
220
0.0
230
1.0
  0
LINE
  5
2FF
100
AcDbEntity
  8
0
 62
     7
 48
0.297337
100
AcDbLine
 10
1227.029785
 20
185.390717
 30
0.0
 11
1232.976563
 21
195.690735
 31
0.0
210
0.0
220
0.0
230
1.0
  0
LINE
  5
300
100
AcDbEntity
  8
0
 62
     7
 48
0.297336
100
AcDbLine
 10
1232.976563
 20
195.690735
 30
0.0
 11
1227.029785
 21
205.990723
 31
0.0
210
0.0
220
0.0
230
1.0
  0
LINE
  5
301
100
AcDbEntity
  8
0
 62
     7
 48
0.086169
100
AcDbLine
 10
1227.029785
 20
205.990723
 30
0.0
 11
1223.583008
 21
205.990723
 31
0.0
210
0.0
220
0.0
230
1.0
  0
LINE
  5
302
100
AcDbEntity
  8
0
 62
     7
 48
0.086163
100
AcDbLine
 10
1218.583008
 20
205.990723
 30
0.0
 11
1215.136475
 21
205.990723
 31
0.0
210
0.0
220
0.0
230
1.0
  0
LINE
  5
303
100
AcDbEntity
  8
0
 62
     7
 48
0.297336
100
AcDbLine
 10
1215.136475
 20
205.990723
 30
0.0
 11
1209.189697
 21
195.690735
 31
0.0
210
0.0
220
0.0
230
1.0
  0
LINE
  5
304
100
AcDbEntity
  8
0
 62
     7
 48
0.297337
100
AcDbLine
 10
1209.189697
 20
195.690735
 30
0.0
 11
1215.136475
 21
185.390717
 31
0.0
210
0.0
220
0.0
230
1.0
  0
CIRCLE
  5
305
100
AcDbEntity
  8
0
 62
     7
100
AcDbCircle
 10
1221.083008
 20
245.690735
 30
0.0
 40
5.9
210
0.0
220
0.0
230
1.0
  0
CIRCLE
  5
306
100
AcDbEntity
  8
0
 62
     7
100
AcDbCircle
 10
1221.083008
 20
245.690735
 30
0.0
 40
7.0
210
0.0
220
0.0
230
1.0
  0
LINE
  5
307
100
AcDbEntity
  8
0
 62
     7
 48
0.015484
100
AcDbLine
 10
1224.537354
 20
250.473785
 30
0.0
 11
1224.227783
 21
249.937347
 31
0.0
210
0.0
220
0.0
230
1.0
  0
LINE
  5
308
100
AcDbEntity
  8
0
 62
     7
 48
0.015484
100
AcDbLine
 10
1223.188477
 20
250.537354
 30
0.0
 11
1223.498047
 21
251.073792
 31
0.0
210
0.0
220
0.0
230
1.0
  0
ARC
  5
309
100
AcDbEntity
  8
0
 62
     7
100
AcDbCircle
 10
1223.708008
 20
250.237366
 30
0.0
 40
0.6
210
0.0
220
0.0
230
1.0
100
AcDbArc
 50
149.999997
 51
329.999999
  0
CIRCLE
  5
30A
100
AcDbEntity
  8
0
 62
     7
100
AcDbCircle
 10
1222.883057
 20
248.808411
 30
0.0
 40
0.4
210
0.0
220
0.0
230
1.0
  0
CIRCLE
  5
30B
100
AcDbEntity
  8
0
 62
     7
100
AcDbCircle
 10
1221.083008
 20
245.690735
 30
0.0
 40
0.4
210
0.0
220
0.0
230
1.0
  0
CIRCLE
  5
30C
100
AcDbEntity
  8
0
 62
     7
100
AcDbCircle
 10
1224.642822
 20
246.227264
 30
0.0
 40
0.4
210
0.0
220
0.0
230
1.0
  0
CIRCLE
  5
30D
100
AcDbEntity
  8
0
 62
     7
100
AcDbCircle
 10
1223.722168
 20
243.242096
 30
0.0
 40
0.4
210
0.0
220
0.0
230
1.0
  0
CIRCLE
  5
30E
100
AcDbEntity
  8
0
 62
     7
100
AcDbCircle
 10
1220.813965
 20
242.1008
 30
0.0
 40
0.4
210
0.0
220
0.0
230
1.0
  0
CIRCLE
  5
30F
100
AcDbEntity
  8
0
 62
     7
100
AcDbCircle
 10
1218.108643
 20
243.662781
 30
0.0
 40
0.4
210
0.0
220
0.0
230
1.0
  0
CIRCLE
  5
310
100
AcDbEntity
  8
0
 62
     7
100
AcDbCircle
 10
1217.643066
 20
246.751831
 30
0.0
 40
0.4
210
0.0
220
0.0
230
1.0
  0
CIRCLE
  5
311
100
AcDbEntity
  8
0
 62
     7
100
AcDbCircle
 10
1219.767822
 20
249.04187
 30
0.0
 40
0.4
210
0.0
220
0.0
230
1.0
  0
LINE
  5
312
100
AcDbEntity
  8
0
 62
     7
 48
0.274242
100
AcDbLine
 10
1226.567871
 20
236.190735
 30
0.0
 11
1232.052734
 21
245.690735
 31
0.0
210
0.0
220
0.0
230
1.0
  0
LINE
  5
313
100
AcDbEntity
  8
0
 62
     7
 48
0.274242
100
AcDbLine
 10
1232.052734
 20
245.690735
 30
0.0
 11
1226.567871
 21
255.190735
 31
0.0
210
0.0
220
0.0
230
1.0
  0
LINE
  5
314
100
AcDbEntity
  8
0
 62
     7
 48
0.274243
100
AcDbLine
 10
1226.567871
 20
255.190735
 30
0.0
 11
1215.598145
 21
255.190735
 31
0.0
210
0.0
220
0.0
230
1.0
  0
LINE
  5
315
100
AcDbEntity
  8
0
 62
     7
 48
0.274239
100
AcDbLine
 10
1215.598145
 20
255.190735
 30
0.0
 11
1210.113525
 21
245.690735
 31
0.0
210
0.0
220
0.0
230
1.0
  0
LINE
  5
316
100
AcDbEntity
  8
0
 62
     7
 48
0.274239
100
AcDbLine
 10
1210.113525
 20
245.690735
 30
0.0
 11
1215.598145
 21
236.190735
 31
0.0
210
0.0
220
0.0
230
1.0
  0
LINE
  5
317
100
AcDbEntity
  8
0
 62
     7
 48
0.274243
100
AcDbLine
 10
1215.598145
 20
236.190735
 30
0.0
 11
1226.567871
 21
236.190735
 31
0.0
210
0.0
220
0.0
230
1.0
  0
LINE
  5
318
100
AcDbEntity
  8
0
 62
     7
 48
0.05
100
AcDbLine
 10
1196.083008
 20
110.690727
 30
0.0
 11
1198.083008
 21
110.690727
 31
0.0
210
0.0
220
0.0
230
1.0
  0
CIRCLE
  5
319
100
AcDbEntity
  8
0
 62
     7
100
AcDbCircle
 10
1221.083008
 20
103.13073
 30
0.0
 40
2.5
210
0.0
220
0.0
230
1.0
  0
LINE
  5
31A
100
AcDbEntity
  8
0
 62
     7
 48
0.05
100
AcDbLine
 10
1251.083008
 20
88.940727
 30
0.0
 11
1253.083008
 21
88.940727
 31
0.0
210
0.0
220
0.0
230
1.0
  0
LINE
  5
31B
100
AcDbEntity
  8
0
 62
     7
 48
0.05
100
AcDbLine
 10
1251.083008
 20
82.440727
 30
0.0
 11
1253.083008
 21
82.440727
 31
0.0
210
0.0
220
0.0
230
1.0
  0
LINE
  5
31C
100
AcDbEntity
  8
0
 62
     7
 48
0.1625
100
AcDbLine
 10
1253.083008
 20
82.440727
 30
0.0
 11
1253.083008
 21
88.940727
 31
0.0
210
0.0
220
0.0
230
1.0
  0
LINE
  5
31D
100
AcDbEntity
  8
0
 62
     7
 48
0.1625
100
AcDbLine
 10
1251.083008
 20
88.940727
 30
0.0
 11
1251.083008
 21
82.440727
 31
0.0
210
0.0
220
0.0
230
1.0
  0
CIRCLE
  5
31E
100
AcDbEntity
  8
0
 62
     7
100
AcDbCircle
 10
1221.083008
 20
68.250732
 30
0.0
 40
2.5
210
0.0
220
0.0
230
1.0
  0
LINE
  5
31F
100
AcDbEntity
  8
0
 62
     7
 48
0.05
100
AcDbLine
 10
1249.083008
 20
110.690727
 30
0.0
 11
1251.083008
 21
110.690727
 31
0.0
210
0.0
220
0.0
230
1.0
  0
LINE
  5
320
100
AcDbEntity
  8
0
 62
     7
 48
0.05
100
AcDbLine
 10
1249.083008
 20
60.690727
 30
0.0
 11
1251.083008
 21
60.690727
 31
0.0
210
0.0
220
0.0
230
1.0
  0
ARC
  5
321
100
AcDbEntity
  8
0
 62
     7
100
AcDbCircle
 10
1198.083008
 20
62.690727
 30
0.0
 40
2.0
210
0.0
220
0.0
230
1.0
100
AcDbArc
 50
180.000005
 51
269.999997
  0
LINE
  5
322
100
AcDbEntity
  8
0
 62
     7
100
AcDbLine
 10
1198.083008
 20
110.690727
 30
0.0
 11
1249.083008
 21
110.690727
 31
0.0
210
0.0
220
0.0
230
1.0
  0
LINE
  5
323
100
AcDbEntity
  8
0
 62
     7
100
AcDbLine
 10
1198.083008
 20
60.690727
 30
0.0
 11
1249.083008
 21
60.690727
 31
0.0
210
0.0
220
0.0
230
1.0
  0
LINE
  5
324
100
AcDbEntity
  8
0
 62
     7
100
AcDbLine
 10
1196.083008
 20
108.690727
 30
0.0
 11
1196.083008
 21
62.690727
 31
0.0
210
0.0
220
0.0
230
1.0
  0
ARC
  5
325
100
AcDbEntity
  8
0
 62
     7
100
AcDbCircle
 10
1198.083008
 20
108.690727
 30
0.0
 40
2.0
210
0.0
220
0.0
230
1.0
100
AcDbArc
 50
90.000003
 51
180.000005
  0
LINE
  5
326
100
AcDbEntity
  8
0
 62
     7
 48
0.49375
100
AcDbLine
 10
1251.083008
 20
108.690727
 30
0.0
 11
1251.083008
 21
88.940727
 31
0.0
210
0.0
220
0.0
230
1.0
  0
LINE
  5
327
100
AcDbEntity
  8
0
 62
     7
 48
0.49375
100
AcDbLine
 10
1253.083008
 20
108.690727
 30
0.0
 11
1253.083008
 21
88.940727
 31
0.0
210
0.0
220
0.0
230
1.0
  0
LINE
  5
328
100
AcDbEntity
  8
0
 62
     7
 48
0.05
100
AcDbLine
 10
1253.083008
 20
110.690727
 30
0.0
 11
1251.083008
 21
110.690727
 31
0.0
210
0.0
220
0.0
230
1.0
  0
LINE
  5
329
100
AcDbEntity
  8
0
 62
     7
 48
0.05
100
AcDbLine
 10
1251.083008
 20
108.690727
 30
0.0
 11
1251.083008
 21
110.690727
 31
0.0
210
0.0
220
0.0
230
1.0
  0
LINE
  5
32A
100
AcDbEntity
  8
0
 62
     7
 48
0.05
100
AcDbLine
 10
1253.083008
 20
108.690727
 30
0.0
 11
1253.083008
 21
110.690727
 31
0.0
210
0.0
220
0.0
230
1.0
  0
LINE
  5
32B
100
AcDbEntity
  8
0
 62
     7
 48
0.49375
100
AcDbLine
 10
1253.083008
 20
82.440727
 30
0.0
 11
1253.083008
 21
62.690727
 31
0.0
210
0.0
220
0.0
230
1.0
  0
LINE
  5
32C
100
AcDbEntity
  8
0
 62
     7
 48
0.49375
100
AcDbLine
 10
1251.083008
 20
82.440727
 30
0.0
 11
1251.083008
 21
62.690727
 31
0.0
210
0.0
220
0.0
230
1.0
  0
LINE
  5
32D
100
AcDbEntity
  8
0
 62
     7
 48
0.05
100
AcDbLine
 10
1253.083008
 20
60.690727
 30
0.0
 11
1251.083008
 21
60.690727
 31
0.0
210
0.0
220
0.0
230
1.0
  0
LINE
  5
32E
100
AcDbEntity
  8
0
 62
     7
 48
0.05
100
AcDbLine
 10
1253.083008
 20
60.690727
 30
0.0
 11
1253.083008
 21
62.690727
 31
0.0
210
0.0
220
0.0
230
1.0
  0
LINE
  5
32F
100
AcDbEntity
  8
0
 62
     7
 48
0.05
100
AcDbLine
 10
1251.083008
 20
60.690727
 30
0.0
 11
1251.083008
 21
62.690727
 31
0.0
210
0.0
220
0.0
230
1.0
  0
ARC
  5
330
100
AcDbEntity
  8
0
 62
     7
100
AcDbCircle
 10
1221.083008
 20
220.690735
 30
0.0
 40
2.5
210
0.0
220
0.0
230
1.0
100
AcDbArc
 50
0.0
 51
179.999995
  0
ARC
  5
331
100
AcDbEntity
  8
0
 62
     7
100
AcDbCircle
 10
1221.083008
 20
220.690735
 30
0.0
 40
5.85
210
0.0
220
0.0
230
1.0
100
AcDbArc
 50
298.647887
 51
244.700342
  0
ARC
  5
332
100
AcDbEntity
  8
0
 62
     7
100
AcDbCircle
 10
1221.083008
 20
220.690735
 30
0.0
 40
5.85
210
0.0
220
0.0
230
1.0
100
AcDbArc
 50
295.299394
 51
298.647887
  0
ARC
  5
333
100
AcDbEntity
  8
0
 62
     7
100
AcDbCircle
 10
1221.083008
 20
220.690735
 30
0.0
 40
9.1
210
0.0
220
0.0
230
1.0
100
AcDbArc
 50
285.945621
 51
254.054347
  0
ARC
  5
334
100
AcDbEntity
  8
0
 62
     7
100
AcDbCircle
 10
1221.083008
 20
220.690735
 30
0.0
 40
7.5
210
0.0
220
0.0
230
1.0
100
AcDbArc
 50
289.4712
 51
250.528767
  0
ARC
  5
335
100
AcDbEntity
  8
0
 62
     7
100
AcDbCircle
 10
1221.083008
 20
220.690735
 30
0.0
 40
7.5
210
0.0
220
0.0
230
1.0
100
AcDbArc
 50
298.647887
 51
118.647885
  0
LINE
  5
336
100
AcDbEntity
  8
0
 62
     7
 48
0.45
100
AcDbLine
 10
1223.583008
 20
202.690735
 30
0.0
 11
1223.583008
 21
220.690735
 31
0.0
210
0.0
220
0.0
230
1.0
  0
LINE
  5
337
100
AcDbEntity
  8
0
 62
     7
 48
0.45
100
AcDbLine
 10
1218.583008
 20
202.690735
 30
0.0
 11
1218.583008
 21
220.690735
 31
0.0
210
0.0
220
0.0
230
1.0
  0
LINE
  5
338
100
AcDbEntity
  8
0
 62
     7
100
AcDbLine
 10
1223.583008
 20
174.690735
 30
0.0
 11
1223.583008
 21
202.690735
 31
0.0
210
0.0
220
0.0
230
1.0
  0
LINE
  5
339
100
AcDbEntity
  8
0
 62
     7
 48
0.174938
100
AcDbLine
 10
1218.583008
 20
195.693207
 30
0.0
 11
1218.583008
 21
202.690735
 31
0.0
210
0.0
220
0.0
230
1.0
  0
LINE
  5
33A
100
AcDbEntity
  8
0
 62
     7
 48
0.45
100
AcDbLine
 10
1223.583008
 20
156.690735
 30
0.0
 11
1223.583008
 21
174.690735
 31
0.0
210
0.0
220
0.0
230
1.0
  0
LINE
  5
33B
100
AcDbEntity
  8
0
 62
     7
100
AcDbLine
 10
1223.583008
 20
156.690735
 30
0.0
 11
1223.583008
 21
136.690735
 31
0.0
210
0.0
220
0.0
230
1.0
  0
LINE
  5
33C
100
AcDbEntity
  8
0
 62
     7
 48
0.15
100
AcDbLine
 10
1223.583008
 20
130.690735
 30
0.0
 11
1223.583008
 21
136.690735
 31
0.0
210
0.0
220
0.0
230
1.0
  0
ARC
  5
33D
100
AcDbEntity
  8
0
 62
     7
100
AcDbCircle
 10
1217.183105
 20
127.690727
 30
0.0
 40
3.0
210
0.0
220
0.0
230
1.0
100
AcDbArc
 50
90.000003
 51
179.999995
  0
LINE
  5
33E
100
AcDbEntity
  8
0
 62
     7
 48
0.02
100
AcDbLine
 10
1227.983154
 20
127.690727
 30
0.0
 11
1227.983154
 21
126.890732
 31
0.0
210
0.0
220
0.0
230
1.0
  0
ARC
  5
33F
100
AcDbEntity
  8
0
 62
     7
100
AcDbCircle
 10
1224.983154
 20
127.690727
 30
0.0
 40
3.0
210
0.0
220
0.0
230
1.0
100
AcDbArc
 50
360.0
 51
90.000003
  0
ARC
  5
340
100
AcDbEntity
  8
0
 62
     7
100
AcDbCircle
 10
1221.083008
 20
195.690735
 30
0.0
 40
2.5
210
0.0
220
0.0
230
1.0
100
AcDbArc
 50
0.0
 51
179.999995
  0
ARC
  5
341
100
AcDbEntity
  8
0
 62
     7
100
AcDbCircle
 10
1221.083008
 20
147.690735
 30
0.0
 40
2.5
210
0.0
220
0.0
230
1.0
100
AcDbArc
 50
179.999995
 51
360.0
  0
LINE
  5
342
100
AcDbEntity
  8
0
 62
     7
 48
0.144244
100
AcDbLine
 10
1219.213379
 20
130.690735
 30
0.0
 11
1224.983154
 21
130.690735
 31
0.0
210
0.0
220
0.0
230
1.0
  0
LINE
  5
343
100
AcDbEntity
  8
0
 62
     7
 48
0.050757
100
AcDbLine
 10
1217.183105
 20
130.690735
 30
0.0
 11
1219.213379
 21
130.690735
 31
0.0
210
0.0
220
0.0
230
1.0
  0
LINE
  5
344
100
AcDbEntity
  8
0
 62
     7
 48
0.405
100
AcDbLine
 10
1213.733154
 20
110.690727
 30
0.0
 11
1213.733154
 21
126.890732
 31
0.0
210
0.0
220
0.0
230
1.0
  0
LINE
  5
345
100
AcDbEntity
  8
0
 62
     7
 48
0.405
100
AcDbLine
 10
1221.083008
 20
110.690727
 30
0.0
 11
1221.083008
 21
126.890732
 31
0.0
210
0.0
220
0.0
230
1.0
  0
LINE
  5
346
100
AcDbEntity
  8
0
 62
     7
 48
0.183746
100
AcDbLine
 10
1213.733154
 20
126.890732
 30
0.0
 11
1221.083008
 21
126.890732
 31
0.0
210
0.0
220
0.0
230
1.0
  0
LINE
  5
347
100
AcDbEntity
  8
0
 62
     7
 48
0.405
100
AcDbLine
 10
1228.433105
 20
110.690727
 30
0.0
 11
1228.433105
 21
126.890732
 31
0.0
210
0.0
220
0.0
230
1.0
  0
LINE
  5
348
100
AcDbEntity
  8
0
 62
     7
 48
0.183752
100
AcDbLine
 10
1221.083008
 20
126.890732
 30
0.0
 11
1228.433105
 21
126.890732
 31
0.0
210
0.0
220
0.0
230
1.0
  0
ARC
  5
349
100
AcDbEntity
  8
0
 62
     7
100
AcDbCircle
 10
1221.083008
 20
195.690735
 30
0.0
 40
5.85
210
0.0
220
0.0
230
1.0
100
AcDbArc
 50
115.299699
 51
244.700301
  0
ARC
  5
34A
100
AcDbEntity
  8
0
 62
     7
100
AcDbCircle
 10
1221.083008
 20
195.690735
 30
0.0
 40
5.85
210
0.0
220
0.0
230
1.0
100
AcDbArc
 50
295.29936
 51
64.70064
  0
ARC
  5
34B
100
AcDbEntity
  8
0
 62
     7
100
AcDbCircle
 10
1221.083008
 20
195.690735
 30
0.0
 40
9.1
210
0.0
220
0.0
230
1.0
100
AcDbArc
 50
285.945429
 51
74.054571
  0
ARC
  5
34C
100
AcDbEntity
  8
0
 62
     7
100
AcDbCircle
 10
1221.083008
 20
195.690735
 30
0.0
 40
9.1
210
0.0
220
0.0
230
1.0
100
AcDbArc
 50
105.945851
 51
254.054149
  0
ARC
  5
34D
100
AcDbEntity
  8
0
 62
     7
100
AcDbCircle
 10
1221.083008
 20
195.690735
 30
0.0
 40
7.5
210
0.0
220
0.0
230
1.0
100
AcDbArc
 50
289.471057
 51
70.528943
  0
ARC
  5
34E
100
AcDbEntity
  8
0
 62
     7
100
AcDbCircle
 10
1221.083008
 20
195.690735
 30
0.0
 40
7.5
210
0.0
220
0.0
230
1.0
100
AcDbArc
 50
109.471383
 51
250.528617
  0
ARC
  5
34F
100
AcDbEntity
  8
0
 62
     7
100
AcDbCircle
 10
1221.083008
 20
195.690735
 30
0.0
 40
7.5
210
0.0
220
0.0
230
1.0
100
AcDbArc
 50
298.647887
 51
70.528984
  0
ARC
  5
350
100
AcDbEntity
  8
0
 62
     7
100
AcDbCircle
 10
1221.083008
 20
195.690735
 30
0.0
 40
7.5
210
0.0
220
0.0
230
1.0
100
AcDbArc
 50
109.471431
 51
118.647885
  0
LINE
  5
351
100
AcDbEntity
  8
0
 62
     7
100
AcDbLine
 10
1223.583008
 20
175.690735
 30
0.0
 11
1223.583008
 21
195.690735
 31
0.0
210
0.0
220
0.0
230
1.0
  0
LINE
  5
352
100
AcDbEntity
  8
0
 62
     7
100
AcDbLine
 10
1218.583008
 20
175.690735
 30
0.0
 11
1218.583008
 21
195.690735
 31
0.0
210
0.0
220
0.0
230
1.0
  0
LINE
  5
353
100
AcDbEntity
  8
0
 62
     7
 48
0.2
100
AcDbLine
 10
1223.583008
 20
167.690735
 30
0.0
 11
1223.583008
 21
175.690735
 31
0.0
210
0.0
220
0.0
230
1.0
  0
LINE
  5
354
100
AcDbEntity
  8
0
 62
     7
 48
0.2
100
AcDbLine
 10
1218.583008
 20
167.690735
 30
0.0
 11
1218.583008
 21
175.690735
 31
0.0
210
0.0
220
0.0
230
1.0
  0
LINE
  5
355
100
AcDbEntity
  8
0
 62
     7
100
AcDbLine
 10
1223.583008
 20
147.690735
 30
0.0
 11
1223.583008
 21
167.690735
 31
0.0
210
0.0
220
0.0
230
1.0
  0
LINE
  5
356
100
AcDbEntity
  8
0
 62
     7
100
AcDbLine
 10
1218.583008
 20
147.690735
 30
0.0
 11
1218.583008
 21
167.690735
 31
0.0
210
0.0
220
0.0
230
1.0
  0
LINE
  5
357
100
AcDbEntity
  8
0
 62
     7
 48
0.3
100
AcDbLine
 10
1223.583008
 20
147.690735
 30
0.0
 11
1223.583008
 21
135.690735
 31
0.0
210
0.0
220
0.0
230
1.0
  0
LINE
  5
358
100
AcDbEntity
  8
0
 62
     7
 48
0.3
100
AcDbLine
 10
1218.583008
 20
147.690735
 30
0.0
 11
1218.583008
 21
135.690735
 31
0.0
210
0.0
220
0.0
230
1.0
  0
LINE
  5
359
100
AcDbEntity
  8
0
 62
     7
 48
0.125
100
AcDbLine
 10
1223.583008
 20
130.690735
 30
0.0
 11
1223.583008
 21
135.690735
 31
0.0
210
0.0
220
0.0
230
1.0
  0
LINE
  5
35A
100
AcDbEntity
  8
0
 62
     7
 48
0.125
100
AcDbLine
 10
1218.583008
 20
130.690735
 30
0.0
 11
1218.583008
 21
135.690735
 31
0.0
210
0.0
220
0.0
230
1.0
  0
LINE
  5
35B
100
AcDbEntity
  8
0
 62
     7
 48
0.02
100
AcDbLine
 10
1214.183105
 20
127.690727
 30
0.0
 11
1214.183105
 21
126.890732
 31
0.0
210
0.0
220
0.0
230
1.0
  0
ARC
  5
35C
100
AcDbEntity
  8
0
 62
     7
100
AcDbCircle
 10
1217.183105
 20
127.690727
 30
0.0
 40
3.0
210
0.0
220
0.0
230
1.0
100
AcDbArc
 50
90.000003
 51
179.999995
  0
LINE
  5
35D
100
AcDbEntity
  8
0
 62
     7
 48
0.02
100
AcDbLine
 10
1227.983154
 20
127.690727
 30
0.0
 11
1227.983154
 21
126.890732
 31
0.0
210
0.0
220
0.0
230
1.0
  0
ARC
  5
35E
100
AcDbEntity
  8
0
 62
     7
100
AcDbCircle
 10
1224.983154
 20
127.690727
 30
0.0
 40
3.0
210
0.0
220
0.0
230
1.0
100
AcDbArc
 50
360.0
 51
90.000003
  0
LINE
  5
35F
100
AcDbEntity
  8
0
 62
     7
100
AcDbLine
 10
1196.083008
 20
110.690727
 30
0.0
 11
1246.083008
 21
110.690727
 31
0.0
210
0.0
220
0.0
230
1.0
  0
LINE
  5
360
100
AcDbEntity
  8
0
 62
     7
 48
0.049939
100
AcDbLine
 10
1198.080566
 20
60.690727
 30
0.0
 11
1196.083008
 21
60.690727
 31
0.0
210
0.0
220
0.0
230
1.0
  0
LINE
  5
361
100
AcDbEntity
  8
0
 62
     7
 48
0.049942
100
AcDbLine
 10
1196.083008
 20
62.688393
 30
0.0
 11
1196.083008
 21
60.690727
 31
0.0
210
0.0
220
0.0
230
1.0
  0
LINE
  5
362
100
AcDbEntity
  8
0
 62
     7
 48
0.049942
100
AcDbLine
 10
1196.083008
 20
110.690727
 30
0.0
 11
1196.083008
 21
108.693062
 31
0.0
210
0.0
220
0.0
230
1.0
  0
LINE
  5
363
100
AcDbEntity
  8
0
 62
     7
 48
0.025
100
AcDbLine
 10
1196.083008
 20
782.690735
 30
0.0
 11
1196.083008
 21
783.690735
 31
0.0
210
0.0
220
0.0
230
1.0
  0
LINE
  5
364
100
AcDbEntity
  8
0
 62
     7
100
AcDbLine
 10
1196.083008
 20
782.690735
 30
0.0
 11
1246.083008
 21
782.690735
 31
0.0
210
0.0
220
0.0
230
1.0
  0
LINE
  5
365
100
AcDbEntity
  8
0
 62
     7
 48
0.025
100
AcDbLine
 10
1246.083008
 20
782.690735
 30
0.0
 11
1246.083008
 21
783.690735
 31
0.0
210
0.0
220
0.0
230
1.0
  0
LINE
  5
366
100
AcDbEntity
  8
0
 62
     7
100
AcDbLine
 10
1196.083008
 20
783.690735
 30
0.0
 11
1246.083008
 21
783.690735
 31
0.0
210
0.0
220
0.0
230
1.0
  0
LINE
  5
367
100
AcDbEntity
  8
0
 62
     7
 48
0.025
100
AcDbLine
 10
1196.083008
 20
59.690727
 30
0.0
 11
1196.083008
 21
60.690727
 31
0.0
210
0.0
220
0.0
230
1.0
  0
LINE
  5
368
100
AcDbEntity
  8
0
 62
     7
100
AcDbLine
 10
1196.083008
 20
59.690727
 30
0.0
 11
1246.083008
 21
59.690727
 31
0.0
210
0.0
220
0.0
230
1.0
  0
LINE
  5
369
100
AcDbEntity
  8
0
 62
     7
 48
0.025
100
AcDbLine
 10
1246.083008
 20
59.690727
 30
0.0
 11
1246.083008
 21
60.690727
 31
0.0
210
0.0
220
0.0
230
1.0
  0
CIRCLE
  5
36A
100
AcDbEntity
  8
0
 62
     7
100
AcDbCircle
 10
768.314697
 20
-30.241333
 30
0.0
 40
2.5
210
0.0
220
0.0
230
1.0
  0
LINE
  5
36B
100
AcDbEntity
  8
0
 62
     7
 48
0.05
100
AcDbLine
 10
754.124695
 20
-60.241333
 30
0.0
 11
754.124695
 21
-62.241333
 31
0.0
210
0.0
220
0.0
230
1.0
  0
LINE
  5
36C
100
AcDbEntity
  8
0
 62
     7
 48
0.05
100
AcDbLine
 10
747.624695
 20
-60.241333
 30
0.0
 11
747.624695
 21
-62.241333
 31
0.0
210
0.0
220
0.0
230
1.0
  0
LINE
  5
36D
100
AcDbEntity
  8
0
 62
     7
 48
0.1625
100
AcDbLine
 10
747.624695
 20
-62.241333
 30
0.0
 11
754.124695
 21
-62.241333
 31
0.0
210
0.0
220
0.0
230
1.0
  0
LINE
  5
36E
100
AcDbEntity
  8
0
 62
     7
 48
0.1625
100
AcDbLine
 10
754.124695
 20
-60.241333
 30
0.0
 11
747.624695
 21
-60.241333
 31
0.0
210
0.0
220
0.0
230
1.0
  0
CIRCLE
  5
36F
100
AcDbEntity
  8
0
 62
     7
100
AcDbCircle
 10
733.434692
 20
-30.241333
 30
0.0
 40
2.5
210
0.0
220
0.0
230
1.0
  0
LINE
  5
370
100
AcDbEntity
  8
0
 62
     7
 48
0.05
100
AcDbLine
 10
775.874695
 20
-58.241333
 30
0.0
 11
775.874695
 21
-60.241333
 31
0.0
210
0.0
220
0.0
230
1.0
  0
LINE
  5
371
100
AcDbEntity
  8
0
 62
     7
 48
0.05
100
AcDbLine
 10
725.874695
 20
-58.241333
 30
0.0
 11
725.874695
 21
-60.241333
 31
0.0
210
0.0
220
0.0
230
1.0
  0
ARC
  5
372
100
AcDbEntity
  8
0
 62
     7
100
AcDbCircle
 10
727.874695
 20
-7.241333
 30
0.0
 40
2.0
210
0.0
220
0.0
230
1.0
100
AcDbArc
 50
90.000003
 51
180.000005
  0
LINE
  5
373
100
AcDbEntity
  8
0
 62
     7
100
AcDbLine
 10
775.874695
 20
-7.241333
 30
0.0
 11
775.874695
 21
-58.241333
 31
0.0
210
0.0
220
0.0
230
1.0
  0
LINE
  5
374
100
AcDbEntity
  8
0
 62
     7
100
AcDbLine
 10
725.874695
 20
-7.241333
 30
0.0
 11
725.874695
 21
-58.241333
 31
0.0
210
0.0
220
0.0
230
1.0
  0
LINE
  5
375
100
AcDbEntity
  8
0
 62
     7
100
AcDbLine
 10
773.874695
 20
-5.241333
 30
0.0
 11
727.874695
 21
-5.241333
 31
0.0
210
0.0
220
0.0
230
1.0
  0
ARC
  5
376
100
AcDbEntity
  8
0
 62
     7
100
AcDbCircle
 10
773.874695
 20
-7.241333
 30
0.0
 40
2.0
210
0.0
220
0.0
230
1.0
100
AcDbArc
 50
0.0
 51
90.000003
  0
LINE
  5
377
100
AcDbEntity
  8
0
 62
     7
 48
0.49375
100
AcDbLine
 10
773.874695
 20
-60.241333
 30
0.0
 11
754.124695
 21
-60.241333
 31
0.0
210
0.0
220
0.0
230
1.0
  0
LINE
  5
378
100
AcDbEntity
  8
0
 62
     7
 48
0.49375
100
AcDbLine
 10
773.874695
 20
-62.241333
 30
0.0
 11
754.124695
 21
-62.241333
 31
0.0
210
0.0
220
0.0
230
1.0
  0
LINE
  5
379
100
AcDbEntity
  8
0
 62
     7
 48
0.05
100
AcDbLine
 10
775.874695
 20
-62.241333
 30
0.0
 11
775.874695
 21
-60.241333
 31
0.0
210
0.0
220
0.0
230
1.0
  0
LINE
  5
37A
100
AcDbEntity
  8
0
 62
     7
 48
0.05
100
AcDbLine
 10
773.874695
 20
-60.241333
 30
0.0
 11
775.874695
 21
-60.241333
 31
0.0
210
0.0
220
0.0
230
1.0
  0
LINE
  5
37B
100
AcDbEntity
  8
0
 62
     7
 48
0.05
100
AcDbLine
 10
773.874695
 20
-62.241333
 30
0.0
 11
775.874695
 21
-62.241333
 31
0.0
210
0.0
220
0.0
230
1.0
  0
LINE
  5
37C
100
AcDbEntity
  8
0
 62
     7
 48
0.49375
100
AcDbLine
 10
747.624695
 20
-62.241333
 30
0.0
 11
727.874695
 21
-62.241333
 31
0.0
210
0.0
220
0.0
230
1.0
  0
LINE
  5
37D
100
AcDbEntity
  8
0
 62
     7
 48
0.49375
100
AcDbLine
 10
747.624695
 20
-60.241333
 30
0.0
 11
727.874695
 21
-60.241333
 31
0.0
210
0.0
220
0.0
230
1.0
  0
LINE
  5
37E
100
AcDbEntity
  8
0
 62
     7
 48
0.05
100
AcDbLine
 10
725.874695
 20
-62.241333
 30
0.0
 11
725.874695
 21
-60.241333
 31
0.0
210
0.0
220
0.0
230
1.0
  0
LINE
  5
37F
100
AcDbEntity
  8
0
 62
     7
 48
0.05
100
AcDbLine
 10
725.874695
 20
-62.241333
 30
0.0
 11
727.874695
 21
-62.241333
 31
0.0
210
0.0
220
0.0
230
1.0
  0
LINE
  5
380
100
AcDbEntity
  8
0
 62
     7
 48
0.05
100
AcDbLine
 10
725.874695
 20
-60.241333
 30
0.0
 11
727.874695
 21
-60.241333
 31
0.0
210
0.0
220
0.0
230
1.0
  0
ARC
  5
381
100
AcDbEntity
  8
0
 62
     7
100
AcDbCircle
 10
712.874695
 20
-58.241333
 30
0.0
 40
4.0
210
0.0
220
0.0
230
1.0
100
AcDbArc
 50
269.999997
 51
360.0
  0
ARC
  5
382
100
AcDbEntity
  8
0
 62
     7
100
AcDbCircle
 10
712.874695
 20
-58.241333
 30
0.0
 40
2.0
210
0.0
220
0.0
230
1.0
100
AcDbArc
 50
269.999997
 51
360.0
  0
LINE
  5
383
100
AcDbEntity
  8
0
 62
     7
100
AcDbLine
 10
714.874695
 20
-7.241333
 30
0.0
 11
714.874695
 21
-58.241333
 31
0.0
210
0.0
220
0.0
230
1.0
  0
LINE
  5
384
100
AcDbEntity
  8
0
 62
     7
 48
0.05
100
AcDbLine
 10
714.874695
 20
-7.241333
 30
0.0
 11
714.874695
 21
-5.241333
 31
0.0
210
0.0
220
0.0
230
1.0
  0
LINE
  5
385
100
AcDbEntity
  8
0
 62
     7
100
AcDbLine
 10
716.874695
 20
-7.241333
 30
0.0
 11
716.874695
 21
-58.241333
 31
0.0
210
0.0
220
0.0
230
1.0
  0
LINE
  5
386
100
AcDbEntity
  8
0
 62
     7
 48
0.05
100
AcDbLine
 10
714.874695
 20
-5.241333
 30
0.0
 11
716.874695
 21
-5.241333
 31
0.0
210
0.0
220
0.0
230
1.0
  0
LINE
  5
387
100
AcDbEntity
  8
0
 62
     7
 48
0.05
100
AcDbLine
 10
686.874695
 20
-62.241333
 30
0.0
 11
686.874695
 21
-60.241333
 31
0.0
210
0.0
220
0.0
230
1.0
  0
LINE
  5
388
100
AcDbEntity
  8
0
 62
     7
100
AcDbLine
 10
712.874695
 20
-60.241333
 30
0.0
 11
688.874695
 21
-60.241333
 31
0.0
210
0.0
220
0.0
230
1.0
  0
LINE
  5
389
100
AcDbEntity
  8
0
 62
     7
100
AcDbLine
 10
712.874695
 20
-62.241333
 30
0.0
 11
688.874695
 21
-62.241333
 31
0.0
210
0.0
220
0.0
230
1.0
  0
LINE
  5
38A
100
AcDbEntity
  8
0
 62
     7
 48
0.05
100
AcDbLine
 10
686.874695
 20
-60.241333
 30
0.0
 11
688.874695
 21
-60.241333
 31
0.0
210
0.0
220
0.0
230
1.0
  0
LINE
  5
38B
100
AcDbEntity
  8
0
 62
     7
 48
0.05
100
AcDbLine
 10
686.874695
 20
-62.241333
 30
0.0
 11
688.874695
 21
-62.241333
 31
0.0
210
0.0
220
0.0
230
1.0
  0
LINE
  5
38C
100
AcDbEntity
  8
0
 62
     7
100
AcDbLine
 10
1042.874756
 20
-55.241333
 30
0.0
 11
775.874695
 21
-55.241333
 31
0.0
210
0.0
220
0.0
230
1.0
  0
LINE
  5
38D
100
AcDbEntity
  8
0
 62
     7
 48
0.2
100
AcDbLine
 10
725.874695
 20
-55.241333
 30
0.0
 11
717.874695
 21
-55.241333
 31
0.0
210
0.0
220
0.0
230
1.0
  0
LINE
  5
38E
100
AcDbEntity
  8
0
 62
     7
100
AcDbLine
 10
1042.874756
 20
-55.241333
 30
0.0
 11
1042.874756
 21
-5.241333
 31
0.0
210
0.0
220
0.0
230
1.0
  0
LINE
  5
38F
100
AcDbEntity
  8
0
 62
     7
100
AcDbLine
 10
1042.874756
 20
-5.241333
 30
0.0
 11
775.874695
 21
-5.241333
 31
0.0
210
0.0
220
0.0
230
1.0
  0
LINE
  5
390
100
AcDbEntity
  8
0
 62
     7
 48
0.2
100
AcDbLine
 10
725.874695
 20
-5.241333
 30
0.0
 11
717.874695
 21
-5.241333
 31
0.0
210
0.0
220
0.0
230
1.0
  0
LINE
  5
391
100
AcDbEntity
  8
0
 62
     7
100
AcDbLine
 10
717.874695
 20
-55.241333
 30
0.0
 11
717.874695
 21
-5.241333
 31
0.0
210
0.0
220
0.0
230
1.0
  0
ARC
  5
392
100
AcDbEntity
  8
0
 62
     7
100
AcDbCircle
 10
1047.874756
 20
-58.241333
 30
0.0
 40
4.0
210
0.0
220
0.0
230
1.0
100
AcDbArc
 50
180.000005
 51
269.999997
  0
ARC
  5
393
100
AcDbEntity
  8
0
 62
     7
100
AcDbCircle
 10
1047.874756
 20
-58.241333
 30
0.0
 40
2.0
210
0.0
220
0.0
230
1.0
100
AcDbArc
 50
180.000005
 51
269.999997
  0
LINE
  5
394
100
AcDbEntity
  8
0
 62
     7
 48
0.05
100
AcDbLine
 10
1043.874756
 20
-5.241333
 30
0.0
 11
1043.874756
 21
-7.241333
 31
0.0
210
0.0
220
0.0
230
1.0
  0
LINE
  5
395
100
AcDbEntity
  8
0
 62
     7
 48
0.05
100
AcDbLine
 10
1045.874756
 20
-5.241333
 30
0.0
 11
1045.874756
 21
-7.241333
 31
0.0
210
0.0
220
0.0
230
1.0
  0
LINE
  5
396
100
AcDbEntity
  8
0
 62
     7
 48
0.05
100
AcDbLine
 10
1045.874756
 20
-5.241333
 30
0.0
 11
1043.874756
 21
-5.241333
 31
0.0
210
0.0
220
0.0
230
1.0
  0
LINE
  5
397
100
AcDbEntity
  8
0
 62
     7
100
AcDbLine
 10
1045.874756
 20
-7.241333
 30
0.0
 11
1045.874756
 21
-58.241333
 31
0.0
210
0.0
220
0.0
230
1.0
  0
LINE
  5
398
100
AcDbEntity
  8
0
 62
     7
100
AcDbLine
 10
1043.874756
 20
-7.241333
 30
0.0
 11
1043.874756
 21
-58.241333
 31
0.0
210
0.0
220
0.0
230
1.0
  0
LINE
  5
399
100
AcDbEntity
  8
0
 62
     7
 48
0.05
100
AcDbLine
 10
1073.874756
 20
-62.241333
 30
0.0
 11
1073.874756
 21
-60.241333
 31
0.0
210
0.0
220
0.0
230
1.0
  0
LINE
  5
39A
100
AcDbEntity
  8
0
 62
     7
100
AcDbLine
 10
1047.874756
 20
-60.241333
 30
0.0
 11
1071.874756
 21
-60.241333
 31
0.0
210
0.0
220
0.0
230
1.0
  0
LINE
  5
39B
100
AcDbEntity
  8
0
 62
     7
100
AcDbLine
 10
1047.874756
 20
-62.241333
 30
0.0
 11
1071.874756
 21
-62.241333
 31
0.0
210
0.0
220
0.0
230
1.0
  0
LINE
  5
39C
100
AcDbEntity
  8
0
 62
     7
 48
0.05
100
AcDbLine
 10
1071.874756
 20
-62.241333
 30
0.0
 11
1073.874756
 21
-62.241333
 31
0.0
210
0.0
220
0.0
230
1.0
  0
LINE
  5
39D
100
AcDbEntity
  8
0
 62
     7
 48
0.05
100
AcDbLine
 10
1071.874756
 20
-60.241333
 30
0.0
 11
1073.874756
 21
-60.241333
 31
0.0
210
0.0
220
0.0
230
1.0
  0
LINE
  5
39E
100
AcDbEntity
  8
0
 62
     7
 48
0.025
100
AcDbLine
 10
717.874695
 20
-55.241333
 30
0.0
 11
716.874695
 21
-55.241333
 31
0.0
210
0.0
220
0.0
230
1.0
  0
LINE
  5
39F
100
AcDbEntity
  8
0
 62
     7
100
AcDbLine
 10
717.874695
 20
-55.241333
 30
0.0
 11
717.874695
 21
-5.241333
 31
0.0
210
0.0
220
0.0
230
1.0
  0
LINE
  5
3A0
100
AcDbEntity
  8
0
 62
     7
 48
0.025
100
AcDbLine
 10
717.874695
 20
-5.241333
 30
0.0
 11
716.874695
 21
-5.241333
 31
0.0
210
0.0
220
0.0
230
1.0
  0
LINE
  5
3A1
100
AcDbEntity
  8
0
 62
     7
100
AcDbLine
 10
716.874695
 20
-55.241333
 30
0.0
 11
716.874695
 21
-5.241333
 31
0.0
210
0.0
220
0.0
230
1.0
  0
LINE
  5
3A2
100
AcDbEntity
  8
0
 62
     7
 48
0.025
100
AcDbLine
 10
1043.874756
 20
-55.241333
 30
0.0
 11
1042.874756
 21
-55.241333
 31
0.0
210
0.0
220
0.0
230
1.0
  0
LINE
  5
3A3
100
AcDbEntity
  8
0
 62
     7
100
AcDbLine
 10
1043.874756
 20
-55.241333
 30
0.0
 11
1043.874756
 21
-5.241333
 31
0.0
210
0.0
220
0.0
230
1.0
  0
LINE
  5
3A4
100
AcDbEntity
  8
0
 62
     7
 48
0.025
100
AcDbLine
 10
1043.874756
 20
-5.241333
 30
0.0
 11
1042.874756
 21
-5.241333
 31
0.0
210
0.0
220
0.0
230
1.0
  0
LINE
  5
3A5
100
AcDbEntity
  8
0
 62
     7
100
AcDbLine
 10
1042.874756
 20
-55.241333
 30
0.0
 11
1042.874756
 21
-5.241333
 31
0.0
210
0.0
220
0.0
230
1.0
  0
LINE
  5
3A6
100
AcDbEntity
  8
0
 62
     7
100
AcDbLine
 10
775.874695
 20
-5.241333
 30
0.0
 11
775.874695
 21
-55.241333
 31
0.0
210
0.0
220
0.0
230
1.0
  0
LINE
  5
3A7
100
AcDbEntity
  8
0
 62
     7
 48
0.049939
100
AcDbLine
 10
725.874695
 20
-7.238892
 30
0.0
 11
725.874695
 21
-5.241333
 31
0.0
210
0.0
220
0.0
230
1.0
  0
LINE
  5
3A8
100
AcDbEntity
  8
0
 62
     7
 48
0.04994
100
AcDbLine
 10
727.872314
 20
-5.241333
 30
0.0
 11
725.874695
 21
-5.241333
 31
0.0
210
0.0
220
0.0
230
1.0
  0
LINE
  5
3A9
100
AcDbEntity
  8
0
 62
     7
 48
0.04994
100
AcDbLine
 10
775.874695
 20
-5.241333
 30
0.0
 11
773.877075
 21
-5.241333
 31
0.0
210
0.0
220
0.0
230
1.0
  0
ENDSEC
  0
SECTION
  2
OBJECTS
  0
DICTIONARY
  5
19
100
AcDbDictionary
  3
ACAD_GROUP
350
1A
  3
ACAD_MLINESTYLE
350
1B
  0
DICTIONARY
  5
1A
102
{ACAD_REACTORS
330
19
102
}
100
AcDbDictionary
  0
DICTIONARY
  5
1B
102
{ACAD_REACTORS
330
19
102
}
100
AcDbDictionary
  3
STANDARD
350
1C
  0
MLINESTYLE
  5
1C
102
{ACAD_REACTORS
330
1B
102
}
100
AcDbMlineStyle
  2
STANDARD
 70
     0
  3

 62
     0
 51
90.0
 52
90.0
 71
     2
 49
0.5
 62
   256
  6
BYLAYER
 49
-0.5
 62
   256
  6
BYLAYER
  0
ENDSEC
  0
EOF
