  0
SECTION
  2
HEADER
  9
$ACADVER
  1
AC1014
  9
$ACADMAINTVER
 70
     0
  9
$DWGCODEPAGE
  3
ANSI_1252
  9
$INSBASE
 10
0.0
 20
0.0
 30
0.0
  9
$EXTMIN
 10
0.0
 20
0.0
 30
0.0
  9
$EXTMAX
 10
999.923645
 20
750.737976
 30
2.0
  9
$LIMMIN
 10
0.0
 20
0.0
  9
$LIMMAX
 10
420.0
 20
297.0
  9
$ORTHOMODE
 70
     0
  9
$REGENMODE
 70
     1
  9
$FILLMODE
 70
     1
  9
$QTEXTMODE
 70
     0
  9
$MIRRTEXT
 70
     1
  9
$DRAGMODE
 70
     2
  9
$LTSCALE
 40
1.0
  9
$OSMODE
 70
     0
  9
$ATTMODE
 70
     1
  9
$TEXTSIZE
 40
2.5
  9
$TRACEWID
 40
1.0
  9
$TEXTSTYLE
  7
STANDARD
  9
$CLAYER
  8
0
  9
$CELTYPE
  6
BYLAYER
  9
$CECOLOR
 62
   256
  9
$CELTSCALE
 40
1.0
  9
$DELOBJ
 70
     1
  9
$DISPSILH
 70
     0
  9
$DIMSCALE
 40
1.0
  9
$DIMASZ
 40
2.5
  9
$DIMEXO
 40
0.625
  9
$DIMDLI
 40
3.75
  9
$DIMRND
 40
0.0
  9
$DIMDLE
 40
0.0
  9
$DIMEXE
 40
1.25
  9
$DIMTP
 40
0.0
  9
$DIMTM
 40
0.0
  9
$DIMTXT
 40
2.5
  9
$DIMCEN
 40
2.5
  9
$DIMTSZ
 40
0.0
  9
$DIMTOL
 70
     0
  9
$DIMLIM
 70
     0
  9
$DIMTIH
 70
     0
  9
$DIMTOH
 70
     0
  9
$DIMSE1
 70
     0
  9
$DIMSE2
 70
     0
  9
$DIMTAD
 70
     1
  9
$DIMZIN
 70
     8
  9
$DIMBLK
  1

  9
$DIMASO
 70
     1
  9
$DIMSHO
 70
     1
  9
$DIMPOST
  1

  9
$DIMAPOST
  1

  9
$DIMALT
 70
     0
  9
$DIMALTD
 70
     3
  9
$DIMALTF
 40
0.03937
  9
$DIMLFAC
 40
1.0
  9
$DIMTOFL
 70
     1
  9
$DIMTVP
 40
0.0
  9
$DIMTIX
 70
     0
  9
$DIMSOXD
 70
     0
  9
$DIMSAH
 70
     0
  9
$DIMBLK1
  1

  9
$DIMBLK2
  1

  9
$DIMSTYLE
  2

  9
$DIMCLRD
 70
     0
  9
$DIMCLRE
 70
     0
  9
$DIMCLRT
 70
     0
  9
$DIMTFAC
 40
1.0
  9
$DIMGAP
 40
0.625
  9
$DIMJUST
 70
     0
  9
$DIMSD1
 70
     0
  9
$DIMSD2
 70
     0
  9
$DIMTOLJ
 70
     0
  9
$DIMTZIN
 70
     8
  9
$DIMALTZ
 70
     0
  9
$DIMALTTZ
 70
     0
  9
$DIMFIT
 70
     0
  9
$DIMUPT
 70
     0
  9
$DIMUNIT
 70
     2
  9
$DIMDEC
 70
     2
  9
$DIMTDEC
 70
     2
  9
$DIMALTU
 70
     2
  9
$DIMALTTD
 70
     3
  9
$DIMTXSTY
  7
STANDARD
  9
$DIMAUNIT
 70
     0
  9
$LUNITS
 70
     2
  9
$LUPREC
 70
     4
  9
$SKETCHINC
 40
1.0
  9
$FILLETRAD
 40
2.5
  9
$AUNITS
 70
     0
  9
$AUPREC
 70
     0
  9
$MENU
  1
.
  9
$ELEVATION
 40
0.0
  9
$PELEVATION
 40
0.0
  9
$THICKNESS
 40
0.0
  9
$LIMCHECK
 70
     0
  9
$BLIPMODE
 70
     1
  9
$CHAMFERA
 40
2.5
  9
$CHAMFERB
 40
2.5
  9
$CHAMFERC
 40
0.0
  9
$CHAMFERD
 40
0.0
  9
$SKPOLY
 70
     0
  9
$TDCREATE
 40
0.000000000
  9
$TDUPDATE
 40
0.000000000
  9
$TDINDWG
 40
0.0000000000
  9
$TDUSRTIMER
 40
0.0000000000
  9
$USRTIMER
 70
     1
  9
$ANGBASE
 50
0.0
  9
$ANGDIR
 70
     0
  9
$PDMODE
 70
     0
  9
$PDSIZE
 40
0.0
  9
$PLINEWID
 40
0.0
  9
$COORDS
 70
     0
  9
$SPLFRAME
 70
     0
  9
$SPLINETYPE
 70
     6
  9
$SPLINESEGS
 70
     8
  9
$ATTDIA
 70
     0
  9
$ATTREQ
 70
     1
  9
$HANDLING
 70
     1
  9
$HANDSEED
  5
112
  9
$SURFTAB1
 70
     6
  9
$SURFTAB2
 70
     6
  9
$SURFTYPE
 70
     6
  9
$SURFU
 70
     6
  9
$SURFV
 70
     6
  9
$UCSNAME
  2

  9
$UCSORG
 10
0.0
 20
0.0
 30
0.0
  9
$UCSXDIR
 10
1.0
 20
0.0
 30
0.0
  9
$UCSYDIR
 10
0.0
 20
1.0
 30
0.0
  9
$PUCSNAME
  2

  9
$PUCSORG
 10
0.0
 20
0.0
 30
0.0
  9
$PUCSXDIR
 10
1.0
 20
0.0
 30
0.0
  9
$PUCSYDIR
 10
0.0
 20
1.0
 30
0.0
  9
$USERI1
 70
     0
  9
$USERI2
 70
     0
  9
$USERI3
 70
     0
  9
$USERI4
 70
     0
  9
$USERI5
 70
     0
  9
$USERR1
 40
0.0
  9
$USERR2
 40
0.0
  9
$USERR3
 40
0.0
  9
$USERR4
 40
0.0
  9
$USERR5
 40
0.0
  9
$WORLDVIEW
 70
     1
  9
$SHADEDGE
 70
     3
  9
$SHADEDIF
 70
    70
  9
$TILEMODE
 70
     1
  9
$MAXACTVP
 70
    48
  9
$PINSBASE
 10
0.0
 20
0.0
 30
0.0
  9
$PLIMCHECK
 70
     0
  9
$PEXTMIN
 10
0.0
 20
0.0
 30
0.0
  9
$PEXTMAX
 10
999.923645
 20
750.737976
 30
2.0
  9
$PLIMMIN
 10
0.0
 20
0.0
  9
$PLIMMAX
 10
420.0
 20
297.0
  9
$UNITMODE
 70
     0
  9
$VISRETAIN
 70
     0
  9
$PLINEGEN
 70
     0
  9
$PSLTSCALE
 70
     1
  9
$TREEDEPTH
 70
  3020
  9
$PICKSTYLE
 70
     1
  9
$CMLSTYLE
  2
STANDARD
  9
$CMLJUST
 70
     0
  9
$CMLSCALE
 40
20.0
  9
$PROXYGRAPHICS
 70
     1
  9
$MEASUREMENT
 70
     1
  0
ENDSEC
  0
SECTION
  2
CLASSES
  0
CLASS
  1
LWPOLYLINE
  2
AcDbPolyline
  3
"AutoCAD"
 90
        0
280
     0
281
     1
  0
CLASS
  1
IMAGE
  2
AcDbRasterImage
  3
ISM
 90
      127
280
     0
281
     1
  0
CLASS
  1
OLE2FRAME
  2
AcDbOle2Frame
  3
""
 90
        0
280
     0
281
     1
  0
CLASS
  1
HATCH
  2
AcDbHatch
  3
"ACAD_SEDONA"
 90
        0
280
     0
281
     1
  0
CLASS
  1
DICTIONARYVAR
  2
AcDbDictionaryVar
  3
"AutoCAD"
 90
        0
280
     0
281
     0
  0
CLASS
  1
RASTERVARIABLES
  2
AcDbRasterVariables
  3
ISM
 90
        0
280
     0
281
     0
  0
CLASS
  1
IMAGEDEF
  2
AcDbRasterImageDef
  3
ISM
 90
        0
280
     0
281
     0
  0
CLASS
  1
IMAGEDEF_REACTOR
  2
AcDbRasterImageDefReactor
  3
ISM
 90
        1
280
     0
281
     0
  0
CLASS
  1
IDBUFFER
  2
AcDbIdBuffer
  3
"Acad"
 90
        0
280
     0
281
     0
  0
CLASS
  1
SPATIAL_FILTER
  2
AcDbSpatialFilter
  3
"Acad"
 90
        0
280
     0
281
     0
  0
CLASS
  1
XRECORD
  2
AcDbXrecord
  3
"<Built In>"
 90
        0
280
     0
281
     0
  0
CLASS
  1
SORTENTSTABLE
  2
AcDbSortentsTable
  3
"AutoCAD"
 90
        0
280
     0
281
     0
  0
CLASS
  1
LAYER_INDEX
  2
AcDbLayerIndex
  3
"Acad"
 90
        0
280
     0
281
     0
  0
CLASS
  1
SPATIAL_INDEX
  2
AcDbSpatialIndex
  3
"Acad"
 90
        0
280
     0
281
     0
  0
CLASS
  1
OBJECT_PTR
  2
CAseDLPNTableRecord
  3
"ASE-LPNTableRecord"
 90
        1
280
     0
281
     0
  0
CLASS
  1
LAYOUT
  2
AcDbLayout
  3
"AutoCAD 2000"
 90
        0
280
     0
281
     0
  0
CLASS
  1
PLOTSETTINGS
  2
AcDbPlotSettings
  3
"AutoCAD 2000"
 90
        0
280
     0
281
     0
  0
CLASS
  1
ACDBDICTIONARYWDFLT
  2
AcDbDictionaryWithDefault
  3
"AutoCAD 2000"
 90
        0
280
     0
281
     0
  0
CLASS
  1
ACDBPLACEHOLDER
  2
AcDbPlaceHolder
  3
"AutoCAD 2000"
 90
        0
280
     0
281
     0
  0
CLASS
  1
VBA_PROJECT
  2
AcDbVbaProject
  3
"acadvba"
 90
        0
280
     0
281
     0
  0
CLASS
  1
WIPEOUT
  2
AcDbWipeout
  3
WipeOut|AutoCAD Express Tool|expresstools@autodesk.com
 90
      127
280
     0
281
     1
  0
CLASS
  1
WIPEOUTVARIABLES
  2
AcDbWipeoutVariables
  3
WipeOut|AutoCAD Express Tool|expresstools@autodesk.com
 90
        0
280
     0
281
     0
  0
CLASS
  1
RTEXT
  2
RText
  3
RText|AutoCAD Express Tool|expresstools@autodesk.com
 90
        0
280
     0
281
     1
  0
CLASS
  1
ARCALIGNEDTEXT
  2
AcDbArcAlignedText
  3
ATEXT|AutoCAD Express Tool|expresstools@autodesk.com
 90
        0
280
     0
281
     1
  0
ENDSEC
  0
SECTION
  2
TABLES
  0
TABLE
  2
VPORT
  5
7
100
AcDbSymbolTable
 70
     1
  0
VPORT
  5
15
100
AcDbSymbolTableRecord
100
AcDbViewportTableRecord
  2
*ACTIVE
 70
     0
 10
0.0
 20
0.0
 11
1.0
 21
1.0
 12
6.591288
 22
4.579184
 13
0.0
 23
0.0
 14
1.0
 24
1.0
 15
0.0
 25
0.0
 16
0.0
 26
0.0
 36
1.0
 17
0.0
 27
0.0
 37
0.0
 40
9.158369
 41
0.688564
 42
50.0
 43
0.0
 44
0.0
 50
0.0
 51
0.0
 71
     0
 72
   100
 73
     1
 74
     1
 75
     0
 76
     0
 77
     0
 78
     0
  0
ENDTAB
  0
TABLE
  2
LTYPE
  5
4
100
AcDbSymbolTable
 70
     3
  0
LTYPE
  5
11
100
AcDbSymbolTableRecord
100
AcDbLinetypeTableRecord
  2
BYBLOCK
 70
    64
  3

 72
    65
 73
     0
 40
0.0
  0
LTYPE
  5
12
100
AcDbSymbolTableRecord
100
AcDbLinetypeTableRecord
  2
BYLAYER
 70
    64
  3

 72
    65
 73
     0
 40
0.0
  0
LTYPE
  5
13
100
AcDbSymbolTableRecord
100
AcDbLinetypeTableRecord
  2
CONTINUOUS
 70
    64
  3
Solid line
 72
    65
 73
     0
 40
0.0
  0
ENDTAB
  0
TABLE
  2
LAYER
  5
2
100
AcDbSymbolTable
 70
     1
  0
LAYER
  5
14
100
AcDbSymbolTableRecord
100
AcDbLayerTableRecord
  2
0
 70
     0
 62
     7
  6
CONTINUOUS
  0
ENDTAB
  0
TABLE
  2
STYLE
  5
3
100
AcDbSymbolTable
 70
     1
  0
STYLE
  5
17
100
AcDbSymbolTableRecord
100
AcDbTextStyleTableRecord
  2
STANDARD
 70
     0
 40
0.0
 41
1.0
 50
0.0
 71
     0
 42
0.0
  3
txt
  4

  0
ENDTAB
  0
TABLE
  2
VIEW
  5
5
100
AcDbSymbolTable
 70
     0
  0
ENDTAB
  0
TABLE
  2
UCS
  5
6
100
AcDbSymbolTable
 70
     0
  0
ENDTAB
  0
TABLE
  2
APPID
  5
8
100
AcDbSymbolTable
 70
     1
  0
APPID
  5
16
100
AcDbSymbolTableRecord
100
AcDbRegAppTableRecord
  2
ACAD
 70
     0
  0
ENDTAB
  0
TABLE
  2
DIMSTYLE
  5
9
100
AcDbSymbolTable
 70
     1
  0
DIMSTYLE
105
18
100
AcDbSymbolTableRecord
100
AcDbDimStyleTableRecord
  2
STANDARD
 70
     0
  3

  4

  5

  6

  7

 40
1.0
 41
0.18
 42
0.0625
 43
0.38
 44
0.18
 45
0.0
 46
0.0
 47
0.0
 48
0.0
 71
     0
 72
     0
 73
     1
 74
     1
 75
     0
 76
     0
 77
     0
 78
     0
140
0.18
141
0.09
142
0.0
143
25.4
144
1.0
145
0.0
146
1.0
147
0.09
170
     0
171
     2
172
     0
173
     0
174
     0
175
     0
176
     0
177
     0
178
     0
270
     2
271
     4
272
     4
273
     2
274
     2
275
     0
280
     0
281
     0
282
     0
283
     1
284
     0
285
     0
286
     0
287
     3
288
     0
340
17
  0
ENDTAB
  0
TABLE
  2
BLOCK_RECORD
  5
1
100
AcDbSymbolTable
 70
     0
  0
BLOCK_RECORD
  5
A
100
AcDbSymbolTableRecord
100
AcDbBlockTableRecord
  2
*MODEL_SPACE
  0
BLOCK_RECORD
  5
B
100
AcDbSymbolTableRecord
100
AcDbBlockTableRecord
  2
*PAPER_SPACE
  0
ENDTAB
  0
ENDSEC
  0
SECTION
  2
BLOCKS
  0
BLOCK
  5
D
100
AcDbEntity
  8
0
100
AcDbBlockBegin
  2
*MODEL_SPACE
 70
     0
 10
0.0
 20
0.0
 30
0.0
  3
*MODEL_SPACE
  1

  0
ENDBLK
  5
E
100
AcDbEntity
  8
0
100
AcDbBlockEnd
  0
BLOCK
  5
F
100
AcDbEntity
 67
     1
  8
0
100
AcDbBlockBegin
  2
*PAPER_SPACE
 70
     0
 10
0.0
 20
0.0
 30
0.0
  3
*PAPER_SPACE
  1

  0
ENDBLK
  5
10
100
AcDbEntity
 67
     1
  8
0
100
AcDbBlockEnd
  0
ENDSEC
  0
SECTION
  2
ENTITIES
  0
VIEWPORT
  5
111
100
AcDbEntity
 67
     1
  8
0
 62
     0
 48
0.0
100
AcDbViewport
 10
0.0
 20
0.0
 30
0.0
 40
1000.0
 41
1000.0
 68
     1
 69
     1
1001
ACAD
1000
MVIEW
1002
{
1070
    16
1010
0.0
1020
0.0
1030
0.0
1010
0.0
1020
0.0
1030
1.0
1040
0.0
1040
1000.0
1040
0.0
1040
0.0
1040
50.0
1040
0.0
1040
0.0
1070
     0
1070
   100
1070
     1
1070
     1
1070
     0
1070
     0
1070
     0
1070
     0
1040
0.0
1040
0.0
1040
0.0
1040
1.0
1040
1.0
1040
1.0
1040
1.0
1070
     0
1002
{
1002
}
1002
}
  0
LINE
  5
1D
100
AcDbEntity
  8
0
 62
     7
100
AcDbLine
 10
968.423645
 20
93.737976
 30
0.0
 11
704.423645
 21
93.737976
 31
0.0
210
0.0
220
0.0
230
1.0
  0
LINE
  5
1E
100
AcDbEntity
  8
0
 62
     7
100
AcDbLine
 10
968.423645
 20
105.737976
 30
0.0
 11
704.423645
 21
105.737976
 31
0.0
210
0.0
220
0.0
230
1.0
  0
LINE
  5
1F
100
AcDbEntity
  8
0
 62
     7
 48
0.3
100
AcDbLine
 10
704.423645
 20
93.737976
 30
0.0
 11
704.423645
 21
105.737976
 31
0.0
210
0.0
220
0.0
230
1.0
  0
LINE
  5
20
100
AcDbEntity
  8
0
 62
     7
100
AcDbLine
 10
968.423645
 20
141.737976
 30
0.0
 11
704.423645
 21
141.737976
 31
0.0
210
0.0
220
0.0
230
1.0
  0
LINE
  5
21
100
AcDbEntity
  8
0
 62
     7
100
AcDbLine
 10
968.423645
 20
153.737976
 30
0.0
 11
704.423645
 21
153.737976
 31
0.0
210
0.0
220
0.0
230
1.0
  0
LINE
  5
22
100
AcDbEntity
  8
0
 62
     7
 48
0.3
100
AcDbLine
 10
704.423645
 20
141.737976
 30
0.0
 11
704.423645
 21
153.737976
 31
0.0
210
0.0
220
0.0
230
1.0
  0
LINE
  5
23
100
AcDbEntity
  8
0
 62
     7
100
AcDbLine
 10
704.423645
 20
105.737976
 30
0.0
 11
704.423645
 21
141.737976
 31
0.0
210
0.0
220
0.0
230
1.0
  0
LINE
  5
24
100
AcDbEntity
  8
0
 62
     7
100
AcDbLine
 10
968.423645
 20
105.737976
 30
0.0
 11
704.423645
 21
105.737976
 31
0.0
210
0.0
220
0.0
230
1.0
  0
LINE
  5
25
100
AcDbEntity
  8
0
 62
     7
100
AcDbLine
 10
639.923645
 20
76.237976
 30
0.0
 11
656.923645
 21
56.737976
 31
0.0
210
0.0
220
0.0
230
1.0
  0
LINE
  5
26
100
AcDbEntity
  8
0
 62
     7
100
AcDbLine
 10
708.923645
 20
76.237976
 30
0.0
 11
691.923645
 21
56.737976
 31
0.0
210
0.0
220
0.0
230
1.0
  0
LINE
  5
27
100
AcDbEntity
  8
0
 62
     7
 48
0.075
100
AcDbLine
 10
708.923645
 20
79.237976
 30
0.0
 11
708.923645
 21
76.237976
 31
0.0
210
0.0
220
0.0
230
1.0
  0
LINE
  5
28
100
AcDbEntity
  8
0
 62
     7
 48
0.225
100
AcDbLine
 10
708.923645
 20
88.237976
 30
0.0
 11
708.923645
 21
79.237976
 31
0.0
210
0.0
220
0.0
230
1.0
  0
LINE
  5
29
100
AcDbEntity
  8
0
 62
     7
 48
0.1
100
AcDbLine
 10
704.923645
 20
79.237976
 30
0.0
 11
708.923645
 21
79.237976
 31
0.0
210
0.0
220
0.0
230
1.0
  0
LINE
  5
2A
100
AcDbEntity
  8
0
 62
     7
 48
0.1
100
AcDbLine
 10
708.923645
 20
88.237976
 30
0.0
 11
704.923645
 21
88.237976
 31
0.0
210
0.0
220
0.0
230
1.0
  0
LINE
  5
2B
100
AcDbEntity
  8
0
 62
     7
 48
0.225
100
AcDbLine
 10
704.923645
 20
88.237976
 30
0.0
 11
704.923645
 21
79.237976
 31
0.0
210
0.0
220
0.0
230
1.0
  0
LINE
  5
2C
100
AcDbEntity
  8
0
 62
     7
 48
0.075
100
AcDbLine
 10
639.923645
 20
79.237976
 30
0.0
 11
639.923645
 21
76.237976
 31
0.0
210
0.0
220
0.0
230
1.0
  0
LINE
  5
2D
100
AcDbEntity
  8
0
 62
     7
 48
0.225
100
AcDbLine
 10
639.923645
 20
88.237976
 30
0.0
 11
639.923645
 21
79.237976
 31
0.0
210
0.0
220
0.0
230
1.0
  0
LINE
  5
2E
100
AcDbEntity
  8
0
 62
     7
100
AcDbLine
 10
643.923645
 20
79.237976
 30
0.0
 11
704.923645
 21
79.237976
 31
0.0
210
0.0
220
0.0
230
1.0
  0
LINE
  5
2F
100
AcDbEntity
  8
0
 62
     7
100
AcDbLine
 10
643.923645
 20
88.237976
 30
0.0
 11
704.923645
 21
88.237976
 31
0.0
210
0.0
220
0.0
230
1.0
  0
LINE
  5
30
100
AcDbEntity
  8
0
 62
     7
 48
0.225
100
AcDbLine
 10
643.923645
 20
88.237976
 30
0.0
 11
643.923645
 21
79.237976
 31
0.0
210
0.0
220
0.0
230
1.0
  0
LINE
  5
31
100
AcDbEntity
  8
0
 62
     7
 48
0.1
100
AcDbLine
 10
639.923645
 20
79.237976
 30
0.0
 11
643.923645
 21
79.237976
 31
0.0
210
0.0
220
0.0
230
1.0
  0
LINE
  5
32
100
AcDbEntity
  8
0
 62
     7
 48
0.1
100
AcDbLine
 10
643.923645
 20
88.237976
 30
0.0
 11
639.923645
 21
88.237976
 31
0.0
210
0.0
220
0.0
230
1.0
  0
LINE
  5
33
100
AcDbEntity
  8
0
 62
     7
 48
0.1625
100
AcDbLine
 10
677.423645
 20
64.237976
 30
0.0
 11
677.423645
 21
57.737976
 31
0.0
210
0.0
220
0.0
230
1.0
  0
LINE
  5
34
100
AcDbEntity
  8
0
 62
     7
 48
0.1625
100
AcDbLine
 10
671.423645
 20
57.737976
 30
0.0
 11
671.423645
 21
64.237976
 31
0.0
210
0.0
220
0.0
230
1.0
  0
ARC
  5
35
100
AcDbEntity
  8
0
 62
     7
100
AcDbCircle
 10
674.423645
 20
64.237976
 30
0.0
 40
3.0
210
0.0
220
0.0
230
1.0
100
AcDbArc
 50
0.0
 51
179.999995
  0
ARC
  5
36
100
AcDbEntity
  8
0
 62
     7
100
AcDbCircle
 10
674.423645
 20
64.237976
 30
0.0
 40
5.0
210
0.0
220
0.0
230
1.0
100
AcDbArc
 50
0.0
 51
180.000005
  0
LINE
  5
37
100
AcDbEntity
  8
0
 62
     7
 48
0.3
100
AcDbLine
 10
656.923645
 20
56.737976
 30
0.0
 11
668.923645
 21
56.737976
 31
0.0
210
0.0
220
0.0
230
1.0
  0
LINE
  5
38
100
AcDbEntity
  8
0
 62
     7
 48
0.0375
100
AcDbLine
 10
670.423645
 20
56.737976
 30
0.0
 11
668.923645
 21
56.737976
 31
0.0
210
0.0
220
0.0
230
1.0
  0
LINE
  5
39
100
AcDbEntity
  8
0
 62
     7
 48
0.175
100
AcDbLine
 10
669.423645
 20
57.237976
 30
0.0
 11
669.423645
 21
64.237976
 31
0.0
210
0.0
220
0.0
230
1.0
  0
ARC
  5
3A
100
AcDbEntity
  8
0
 62
     7
100
AcDbCircle
 10
668.923645
 20
57.237976
 30
0.0
 40
0.5
210
0.0
220
0.0
230
1.0
100
AcDbArc
 50
269.999997
 51
360.0
  0
ARC
  5
3B
100
AcDbEntity
  8
0
 62
     7
100
AcDbCircle
 10
670.423645
 20
57.737976
 30
0.0
 40
1.0
210
0.0
220
0.0
230
1.0
100
AcDbArc
 50
269.999997
 51
360.0
  0
LINE
  5
3C
100
AcDbEntity
  8
0
 62
     7
 48
0.0375
100
AcDbLine
 10
679.923645
 20
56.737976
 30
0.0
 11
678.423645
 21
56.737976
 31
0.0
210
0.0
220
0.0
230
1.0
  0
ARC
  5
3D
100
AcDbEntity
  8
0
 62
     7
100
AcDbCircle
 10
678.423645
 20
57.737976
 30
0.0
 40
1.0
210
0.0
220
0.0
230
1.0
100
AcDbArc
 50
179.999995
 51
269.999997
  0
LINE
  5
3E
100
AcDbEntity
  8
0
 62
     7
 48
0.3
100
AcDbLine
 10
679.923645
 20
56.737976
 30
0.0
 11
691.923645
 21
56.737976
 31
0.0
210
0.0
220
0.0
230
1.0
  0
LINE
  5
3F
100
AcDbEntity
  8
0
 62
     7
 48
0.175
100
AcDbLine
 10
679.423645
 20
64.237976
 30
0.0
 11
679.423645
 21
57.237976
 31
0.0
210
0.0
220
0.0
230
1.0
  0
ARC
  5
40
100
AcDbEntity
  8
0
 62
     7
100
AcDbCircle
 10
679.923645
 20
57.237976
 30
0.0
 40
0.5
210
0.0
220
0.0
230
1.0
100
AcDbArc
 50
180.000005
 51
269.999997
  0
LINE
  5
41
100
AcDbEntity
  8
0
 62
     7
 48
0.1
100
AcDbLine
 10
681.677551
 20
75.237976
 30
0.0
 11
681.677551
 21
71.237976
 31
0.0
210
0.0
220
0.0
230
1.0
  0
LINE
  5
42
100
AcDbEntity
  8
0
 62
     7
 48
0.025
100
AcDbLine
 10
681.677551
 20
70.237976
 30
0.0
 11
681.677551
 21
71.237976
 31
0.0
210
0.0
220
0.0
230
1.0
  0
LINE
  5
43
100
AcDbEntity
  8
0
 62
     7
 48
0.3175
100
AcDbLine
 10
702.923645
 20
75.237976
 30
0.0
 11
690.223633
 21
75.237976
 31
0.0
210
0.0
220
0.0
230
1.0
  0
LINE
  5
44
100
AcDbEntity
  8
0
 62
     7
 48
0.3175
100
AcDbLine
 10
690.223633
 20
75.237976
 30
0.0
 11
677.523621
 21
75.237976
 31
0.0
210
0.0
220
0.0
230
1.0
  0
LINE
  5
45
100
AcDbEntity
  8
0
 62
     7
 48
0.464902
100
AcDbLine
 10
681.677551
 20
71.237976
 30
0.0
 11
700.273621
 21
71.237976
 31
0.0
210
0.0
220
0.0
230
1.0
  0
LINE
  5
46
100
AcDbEntity
  8
0
 62
     7
 48
0.1
100
AcDbLine
 10
700.273621
 20
75.237976
 30
0.0
 11
700.273621
 21
71.237976
 31
0.0
210
0.0
220
0.0
230
1.0
  0
LINE
  5
47
100
AcDbEntity
  8
0
 62
     7
 48
0.439902
100
AcDbLine
 10
681.677551
 20
70.237976
 30
0.0
 11
699.273621
 21
70.237976
 31
0.0
210
0.0
220
0.0
230
1.0
  0
LINE
  5
48
100
AcDbEntity
  8
0
 62
     7
 48
0.035355
100
AcDbLine
 10
700.273621
 20
71.237976
 30
0.0
 11
699.273621
 21
70.237976
 31
0.0
210
0.0
220
0.0
230
1.0
  0
LINE
  5
49
100
AcDbEntity
  8
0
 62
     7
 48
0.1
100
AcDbLine
 10
702.923645
 20
79.237976
 30
0.0
 11
702.923645
 21
75.237976
 31
0.0
210
0.0
220
0.0
230
1.0
  0
LINE
  5
4A
100
AcDbEntity
  8
0
 62
     7
 48
0.1
100
AcDbLine
 10
690.223633
 20
79.237976
 30
0.0
 11
690.223633
 21
75.237976
 31
0.0
210
0.0
220
0.0
230
1.0
  0
LINE
  5
4B
100
AcDbEntity
  8
0
 62
     7
 48
0.1
100
AcDbLine
 10
677.523621
 20
79.237976
 30
0.0
 11
677.523621
 21
75.237976
 31
0.0
210
0.0
220
0.0
230
1.0
  0
LINE
  5
4C
100
AcDbEntity
  8
0
 62
     7
100
AcDbLine
 10
649.473633
 20
69.737976
 30
0.0
 11
672.373657
 21
69.737976
 31
0.0
210
0.0
220
0.0
230
1.0
  0
LINE
  5
4D
100
AcDbEntity
  8
0
 62
     7
 48
0.125
100
AcDbLine
 10
649.473633
 20
74.737976
 30
0.0
 11
649.473633
 21
69.737976
 31
0.0
210
0.0
220
0.0
230
1.0
  0
LINE
  5
4E
100
AcDbEntity
  8
0
 62
     7
 48
0.125
100
AcDbLine
 10
672.373657
 20
74.737976
 30
0.0
 11
672.373657
 21
69.737976
 31
0.0
210
0.0
220
0.0
230
1.0
  0
LINE
  5
4F
100
AcDbEntity
  8
0
 62
     7
 48
0.3625
100
AcDbLine
 10
675.423645
 20
74.737976
 30
0.0
 11
660.923645
 21
74.737976
 31
0.0
210
0.0
220
0.0
230
1.0
  0
LINE
  5
50
100
AcDbEntity
  8
0
 62
     7
 48
0.3625
100
AcDbLine
 10
660.923645
 20
74.737976
 30
0.0
 11
646.423645
 21
74.737976
 31
0.0
210
0.0
220
0.0
230
1.0
  0
LINE
  5
51
100
AcDbEntity
  8
0
 62
     7
 48
0.1125
100
AcDbLine
 10
675.423645
 20
79.237976
 30
0.0
 11
675.423645
 21
74.737976
 31
0.0
210
0.0
220
0.0
230
1.0
  0
LINE
  5
52
100
AcDbEntity
  8
0
 62
     7
 48
0.1125
100
AcDbLine
 10
660.923645
 20
79.237976
 30
0.0
 11
660.923645
 21
74.737976
 31
0.0
210
0.0
220
0.0
230
1.0
  0
LINE
  5
53
100
AcDbEntity
  8
0
 62
     7
 48
0.1125
100
AcDbLine
 10
646.423645
 20
79.237976
 30
0.0
 11
646.423645
 21
74.737976
 31
0.0
210
0.0
220
0.0
230
1.0
  0
LINE
  5
54
100
AcDbEntity
  8
0
 62
     7
100
AcDbLine
 10
644.423645
 20
88.237976
 30
0.0
 11
644.423645
 21
719.237976
 31
0.0
210
0.0
220
0.0
230
1.0
  0
LINE
  5
55
100
AcDbEntity
  8
0
 62
     7
 48
0.3
100
AcDbLine
 10
644.423645
 20
88.237976
 30
0.0
 11
656.423645
 21
88.237976
 31
0.0
210
0.0
220
0.0
230
1.0
  0
LINE
  5
56
100
AcDbEntity
  8
0
 62
     7
100
AcDbLine
 10
656.423645
 20
88.237976
 30
0.0
 11
656.423645
 21
719.237976
 31
0.0
210
0.0
220
0.0
230
1.0
  0
LINE
  5
57
100
AcDbEntity
  8
0
 62
     7
100
AcDbLine
 10
692.423645
 20
88.237976
 30
0.0
 11
692.423645
 21
719.237976
 31
0.0
210
0.0
220
0.0
230
1.0
  0
LINE
  5
58
100
AcDbEntity
  8
0
 62
     7
 48
0.3
100
AcDbLine
 10
692.423645
 20
88.237976
 30
0.0
 11
704.423645
 21
88.237976
 31
0.0
210
0.0
220
0.0
230
1.0
  0
LINE
  5
59
100
AcDbEntity
  8
0
 62
     7
100
AcDbLine
 10
704.423645
 20
88.237976
 30
0.0
 11
704.423645
 21
719.237976
 31
0.0
210
0.0
220
0.0
230
1.0
  0
LINE
  5
5A
100
AcDbEntity
  8
0
 62
     7
100
AcDbLine
 10
656.423645
 20
88.237976
 30
0.0
 11
692.423645
 21
88.237976
 31
0.0
210
0.0
220
0.0
230
1.0
  0
LINE
  5
5B
100
AcDbEntity
  8
0
 62
     7
100
AcDbLine
 10
656.423645
 20
88.237976
 30
0.0
 11
656.423645
 21
719.237976
 31
0.0
210
0.0
220
0.0
230
1.0
  0
LINE
  5
5C
100
AcDbEntity
  8
0
 62
     7
100
AcDbLine
 10
708.923645
 20
731.237976
 30
0.0
 11
691.923645
 21
750.737976
 31
0.0
210
0.0
220
0.0
230
1.0
  0
LINE
  5
5D
100
AcDbEntity
  8
0
 62
     7
100
AcDbLine
 10
639.923645
 20
731.237976
 30
0.0
 11
656.923645
 21
750.737976
 31
0.0
210
0.0
220
0.0
230
1.0
  0
LINE
  5
5E
100
AcDbEntity
  8
0
 62
     7
 48
0.075
100
AcDbLine
 10
639.923645
 20
728.237976
 30
0.0
 11
639.923645
 21
731.237976
 31
0.0
210
0.0
220
0.0
230
1.0
  0
LINE
  5
5F
100
AcDbEntity
  8
0
 62
     7
 48
0.225
100
AcDbLine
 10
639.923645
 20
719.237976
 30
0.0
 11
639.923645
 21
728.237976
 31
0.0
210
0.0
220
0.0
230
1.0
  0
LINE
  5
60
100
AcDbEntity
  8
0
 62
     7
 48
0.1
100
AcDbLine
 10
643.923645
 20
728.237976
 30
0.0
 11
639.923645
 21
728.237976
 31
0.0
210
0.0
220
0.0
230
1.0
  0
LINE
  5
61
100
AcDbEntity
  8
0
 62
     7
 48
0.1
100
AcDbLine
 10
639.923645
 20
719.237976
 30
0.0
 11
643.923645
 21
719.237976
 31
0.0
210
0.0
220
0.0
230
1.0
  0
LINE
  5
62
100
AcDbEntity
  8
0
 62
     7
 48
0.225
100
AcDbLine
 10
643.923645
 20
719.237976
 30
0.0
 11
643.923645
 21
728.237976
 31
0.0
210
0.0
220
0.0
230
1.0
  0
LINE
  5
63
100
AcDbEntity
  8
0
 62
     7
 48
0.075
100
AcDbLine
 10
708.923645
 20
728.237976
 30
0.0
 11
708.923645
 21
731.237976
 31
0.0
210
0.0
220
0.0
230
1.0
  0
LINE
  5
64
100
AcDbEntity
  8
0
 62
     7
 48
0.225
100
AcDbLine
 10
708.923645
 20
719.237976
 30
0.0
 11
708.923645
 21
728.237976
 31
0.0
210
0.0
220
0.0
230
1.0
  0
LINE
  5
65
100
AcDbEntity
  8
0
 62
     7
100
AcDbLine
 10
704.923645
 20
728.237976
 30
0.0
 11
643.923645
 21
728.237976
 31
0.0
210
0.0
220
0.0
230
1.0
  0
LINE
  5
66
100
AcDbEntity
  8
0
 62
     7
100
AcDbLine
 10
704.923645
 20
719.237976
 30
0.0
 11
643.923645
 21
719.237976
 31
0.0
210
0.0
220
0.0
230
1.0
  0
LINE
  5
67
100
AcDbEntity
  8
0
 62
     7
 48
0.225
100
AcDbLine
 10
704.923645
 20
719.237976
 30
0.0
 11
704.923645
 21
728.237976
 31
0.0
210
0.0
220
0.0
230
1.0
  0
LINE
  5
68
100
AcDbEntity
  8
0
 62
     7
 48
0.1
100
AcDbLine
 10
708.923645
 20
728.237976
 30
0.0
 11
704.923645
 21
728.237976
 31
0.0
210
0.0
220
0.0
230
1.0
  0
LINE
  5
69
100
AcDbEntity
  8
0
 62
     7
 48
0.1
100
AcDbLine
 10
704.923645
 20
719.237976
 30
0.0
 11
708.923645
 21
719.237976
 31
0.0
210
0.0
220
0.0
230
1.0
  0
LINE
  5
6A
100
AcDbEntity
  8
0
 62
     7
 48
0.1625
100
AcDbLine
 10
671.423645
 20
743.237976
 30
0.0
 11
671.423645
 21
749.737976
 31
0.0
210
0.0
220
0.0
230
1.0
  0
LINE
  5
6B
100
AcDbEntity
  8
0
 62
     7
 48
0.1625
100
AcDbLine
 10
677.423645
 20
749.737976
 30
0.0
 11
677.423645
 21
743.237976
 31
0.0
210
0.0
220
0.0
230
1.0
  0
ARC
  5
6C
100
AcDbEntity
  8
0
 62
     7
100
AcDbCircle
 10
674.423645
 20
743.237976
 30
0.0
 40
3.0
210
0.0
220
0.0
230
1.0
100
AcDbArc
 50
179.999995
 51
0.0
  0
ARC
  5
6D
100
AcDbEntity
  8
0
 62
     7
100
AcDbCircle
 10
674.423645
 20
743.237976
 30
0.0
 40
5.0
210
0.0
220
0.0
230
1.0
100
AcDbArc
 50
180.000005
 51
360.0
  0
LINE
  5
6E
100
AcDbEntity
  8
0
 62
     7
 48
0.3
100
AcDbLine
 10
691.923645
 20
750.737976
 30
0.0
 11
679.923645
 21
750.737976
 31
0.0
210
0.0
220
0.0
230
1.0
  0
LINE
  5
6F
100
AcDbEntity
  8
0
 62
     7
 48
0.0375
100
AcDbLine
 10
678.423645
 20
750.737976
 30
0.0
 11
679.923645
 21
750.737976
 31
0.0
210
0.0
220
0.0
230
1.0
  0
LINE
  5
70
100
AcDbEntity
  8
0
 62
     7
 48
0.175
100
AcDbLine
 10
679.423645
 20
750.237976
 30
0.0
 11
679.423645
 21
743.237976
 31
0.0
210
0.0
220
0.0
230
1.0
  0
ARC
  5
71
100
AcDbEntity
  8
0
 62
     7
100
AcDbCircle
 10
679.923645
 20
750.237976
 30
0.0
 40
0.5
210
0.0
220
0.0
230
1.0
100
AcDbArc
 50
90.000003
 51
180.000005
  0
ARC
  5
72
100
AcDbEntity
  8
0
 62
     7
100
AcDbCircle
 10
678.423645
 20
749.737976
 30
0.0
 40
1.0
210
0.0
220
0.0
230
1.0
100
AcDbArc
 50
90.000003
 51
180.000005
  0
LINE
  5
73
100
AcDbEntity
  8
0
 62
     7
 48
0.0375
100
AcDbLine
 10
668.923645
 20
750.737976
 30
0.0
 11
670.423645
 21
750.737976
 31
0.0
210
0.0
220
0.0
230
1.0
  0
ARC
  5
74
100
AcDbEntity
  8
0
 62
     7
100
AcDbCircle
 10
670.423645
 20
749.737976
 30
0.0
 40
1.0
210
0.0
220
0.0
230
1.0
100
AcDbArc
 50
0.0
 51
90.000003
  0
LINE
  5
75
100
AcDbEntity
  8
0
 62
     7
 48
0.3
100
AcDbLine
 10
668.923645
 20
750.737976
 30
0.0
 11
656.923645
 21
750.737976
 31
0.0
210
0.0
220
0.0
230
1.0
  0
LINE
  5
76
100
AcDbEntity
  8
0
 62
     7
 48
0.175
100
AcDbLine
 10
669.423645
 20
743.237976
 30
0.0
 11
669.423645
 21
750.237976
 31
0.0
210
0.0
220
0.0
230
1.0
  0
ARC
  5
77
100
AcDbEntity
  8
0
 62
     7
100
AcDbCircle
 10
668.923645
 20
750.237976
 30
0.0
 40
0.5
210
0.0
220
0.0
230
1.0
100
AcDbArc
 50
0.0
 51
90.000003
  0
LINE
  5
78
100
AcDbEntity
  8
0
 62
     7
100
AcDbLine
 10
980.423645
 20
89.237976
 30
0.0
 11
999.923645
 21
106.237976
 31
0.0
210
0.0
220
0.0
230
1.0
  0
LINE
  5
79
100
AcDbEntity
  8
0
 62
     7
100
AcDbLine
 10
980.423645
 20
158.237976
 30
0.0
 11
999.923645
 21
141.237976
 31
0.0
210
0.0
220
0.0
230
1.0
  0
LINE
  5
7A
100
AcDbEntity
  8
0
 62
     7
 48
0.075
100
AcDbLine
 10
977.423645
 20
158.237976
 30
0.0
 11
980.423645
 21
158.237976
 31
0.0
210
0.0
220
0.0
230
1.0
  0
LINE
  5
7B
100
AcDbEntity
  8
0
 62
     7
 48
0.225
100
AcDbLine
 10
968.423645
 20
158.237976
 30
0.0
 11
977.423645
 21
158.237976
 31
0.0
210
0.0
220
0.0
230
1.0
  0
LINE
  5
7C
100
AcDbEntity
  8
0
 62
     7
 48
0.1
100
AcDbLine
 10
977.423645
 20
154.237976
 30
0.0
 11
977.423645
 21
158.237976
 31
0.0
210
0.0
220
0.0
230
1.0
  0
LINE
  5
7D
100
AcDbEntity
  8
0
 62
     7
 48
0.1
100
AcDbLine
 10
968.423645
 20
158.237976
 30
0.0
 11
968.423645
 21
154.237976
 31
0.0
210
0.0
220
0.0
230
1.0
  0
LINE
  5
7E
100
AcDbEntity
  8
0
 62
     7
 48
0.225
100
AcDbLine
 10
968.423645
 20
154.237976
 30
0.0
 11
977.423645
 21
154.237976
 31
0.0
210
0.0
220
0.0
230
1.0
  0
LINE
  5
7F
100
AcDbEntity
  8
0
 62
     7
 48
0.075
100
AcDbLine
 10
977.423645
 20
89.237976
 30
0.0
 11
980.423645
 21
89.237976
 31
0.0
210
0.0
220
0.0
230
1.0
  0
LINE
  5
80
100
AcDbEntity
  8
0
 62
     7
 48
0.225
100
AcDbLine
 10
968.423645
 20
89.237976
 30
0.0
 11
977.423645
 21
89.237976
 31
0.0
210
0.0
220
0.0
230
1.0
  0
LINE
  5
81
100
AcDbEntity
  8
0
 62
     7
100
AcDbLine
 10
977.423645
 20
93.237976
 30
0.0
 11
977.423645
 21
154.237976
 31
0.0
210
0.0
220
0.0
230
1.0
  0
LINE
  5
82
100
AcDbEntity
  8
0
 62
     7
100
AcDbLine
 10
968.423645
 20
93.237976
 30
0.0
 11
968.423645
 21
154.237976
 31
0.0
210
0.0
220
0.0
230
1.0
  0
LINE
  5
83
100
AcDbEntity
  8
0
 62
     7
 48
0.225
100
AcDbLine
 10
968.423645
 20
93.237976
 30
0.0
 11
977.423645
 21
93.237976
 31
0.0
210
0.0
220
0.0
230
1.0
  0
LINE
  5
84
100
AcDbEntity
  8
0
 62
     7
 48
0.1
100
AcDbLine
 10
977.423645
 20
89.237976
 30
0.0
 11
977.423645
 21
93.237976
 31
0.0
210
0.0
220
0.0
230
1.0
  0
LINE
  5
85
100
AcDbEntity
  8
0
 62
     7
 48
0.1
100
AcDbLine
 10
968.423645
 20
93.237976
 30
0.0
 11
968.423645
 21
89.237976
 31
0.0
210
0.0
220
0.0
230
1.0
  0
LINE
  5
86
100
AcDbEntity
  8
0
 62
     7
 48
0.1625
100
AcDbLine
 10
992.423645
 20
126.737976
 30
0.0
 11
998.923645
 21
126.737976
 31
0.0
210
0.0
220
0.0
230
1.0
  0
LINE
  5
87
100
AcDbEntity
  8
0
 62
     7
 48
0.1625
100
AcDbLine
 10
998.923645
 20
120.737976
 30
0.0
 11
992.423645
 21
120.737976
 31
0.0
210
0.0
220
0.0
230
1.0
  0
ARC
  5
88
100
AcDbEntity
  8
0
 62
     7
100
AcDbCircle
 10
992.423645
 20
123.737976
 30
0.0
 40
3.0
210
0.0
220
0.0
230
1.0
100
AcDbArc
 50
90.000003
 51
269.999997
  0
ARC
  5
89
100
AcDbEntity
  8
0
 62
     7
100
AcDbCircle
 10
992.423645
 20
123.737976
 30
0.0
 40
5.0
210
0.0
220
0.0
230
1.0
100
AcDbArc
 50
90.000003
 51
269.999997
  0
LINE
  5
8A
100
AcDbEntity
  8
0
 62
     7
 48
0.3
100
AcDbLine
 10
999.923645
 20
106.237976
 30
0.0
 11
999.923645
 21
118.237976
 31
0.0
210
0.0
220
0.0
230
1.0
  0
LINE
  5
8B
100
AcDbEntity
  8
0
 62
     7
 48
0.0375
100
AcDbLine
 10
999.923645
 20
119.737976
 30
0.0
 11
999.923645
 21
118.237976
 31
0.0
210
0.0
220
0.0
230
1.0
  0
LINE
  5
8C
100
AcDbEntity
  8
0
 62
     7
 48
0.175
100
AcDbLine
 10
999.423645
 20
118.737976
 30
0.0
 11
992.423645
 21
118.737976
 31
0.0
210
0.0
220
0.0
230
1.0
  0
ARC
  5
8D
100
AcDbEntity
  8
0
 62
     7
100
AcDbCircle
 10
999.423645
 20
118.237976
 30
0.0
 40
0.5
210
0.0
220
0.0
230
1.0
100
AcDbArc
 50
0.0
 51
90.000003
  0
ARC
  5
8E
100
AcDbEntity
  8
0
 62
     7
100
AcDbCircle
 10
998.923645
 20
119.737976
 30
0.0
 40
1.0
210
0.0
220
0.0
230
1.0
100
AcDbArc
 50
0.0
 51
90.000003
  0
LINE
  5
8F
100
AcDbEntity
  8
0
 62
     7
 48
0.0375
100
AcDbLine
 10
999.923645
 20
129.237976
 30
0.0
 11
999.923645
 21
127.737976
 31
0.0
210
0.0
220
0.0
230
1.0
  0
ARC
  5
90
100
AcDbEntity
  8
0
 62
     7
100
AcDbCircle
 10
998.923645
 20
127.737976
 30
0.0
 40
1.0
210
0.0
220
0.0
230
1.0
100
AcDbArc
 50
269.999997
 51
360.0
  0
LINE
  5
91
100
AcDbEntity
  8
0
 62
     7
 48
0.3
100
AcDbLine
 10
999.923645
 20
129.237976
 30
0.0
 11
999.923645
 21
141.237976
 31
0.0
210
0.0
220
0.0
230
1.0
  0
LINE
  5
92
100
AcDbEntity
  8
0
 62
     7
 48
0.175
100
AcDbLine
 10
992.423645
 20
128.737976
 30
0.0
 11
999.423645
 21
128.737976
 31
0.0
210
0.0
220
0.0
230
1.0
  0
ARC
  5
93
100
AcDbEntity
  8
0
 62
     7
100
AcDbCircle
 10
999.423645
 20
129.237976
 30
0.0
 40
0.5
210
0.0
220
0.0
230
1.0
100
AcDbArc
 50
269.999997
 51
360.0
  0
LINE
  5
94
100
AcDbEntity
  8
0
 62
     7
 48
0.447501
100
AcDbLine
 10
850.373657
 20
153.737976
 30
0.0
 11
832.473633
 21
153.737976
 31
0.0
210
0.0
220
0.0
230
1.0
  0
LINE
  5
95
100
AcDbEntity
  8
0
 62
     7
 48
0.051251
100
AcDbLine
 10
834.523682
 20
161.937973
 30
0.0
 11
832.473633
 21
161.937973
 31
0.0
210
0.0
220
0.0
230
1.0
  0
LINE
  5
96
100
AcDbEntity
  8
0
 62
     7
 48
0.205
100
AcDbLine
 10
832.473633
 20
153.737976
 30
0.0
 11
832.473633
 21
161.937973
 31
0.0
210
0.0
220
0.0
230
1.0
  0
LINE
  5
97
100
AcDbEntity
  8
0
 62
     7
 48
0.205
100
AcDbLine
 10
850.373657
 20
153.737976
 30
0.0
 11
850.373657
 21
161.937973
 31
0.0
210
0.0
220
0.0
230
1.0
  0
LINE
  5
98
100
AcDbEntity
  8
0
 62
     7
 48
0.051251
100
AcDbLine
 10
850.373657
 20
161.937973
 30
0.0
 11
848.323608
 21
161.937973
 31
0.0
210
0.0
220
0.0
230
1.0
  0
LINE
  5
99
100
AcDbEntity
  8
0
 62
     7
 48
0.10253
100
AcDbLine
 10
848.323608
 20
161.937973
 30
0.0
 11
845.423645
 21
159.037979
 31
0.0
210
0.0
220
0.0
230
1.0
  0
LINE
  5
9A
100
AcDbEntity
  8
0
 62
     7
 48
0.2
100
AcDbLine
 10
845.423645
 20
159.037979
 30
0.0
 11
837.423645
 21
159.037979
 31
0.0
210
0.0
220
0.0
230
1.0
  0
LINE
  5
9B
100
AcDbEntity
  8
0
 62
     7
 48
0.10253
100
AcDbLine
 10
834.523682
 20
161.937973
 30
0.0
 11
837.423645
 21
159.037979
 31
0.0
210
0.0
220
0.0
230
1.0
  0
LINE
  5
9C
100
AcDbEntity
  8
0
 62
     7
 48
0.0125
100
AcDbLine
 10
834.523682
 20
161.937973
 30
0.0
 11
834.023682
 21
161.937973
 31
0.0
210
0.0
220
0.0
230
1.0
  0
LINE
  5
9D
100
AcDbEntity
  8
0
 62
     7
 48
0.369998
100
AcDbLine
 10
848.823608
 20
161.937973
 30
0.0
 11
834.023682
 21
161.937973
 31
0.0
210
0.0
220
0.0
230
1.0
  0
LINE
  5
9E
100
AcDbEntity
  8
0
 62
     7
100
AcDbLine
 10
511.016846
 20
93.712967
 30
0.0
 11
247.016846
 21
93.712967
 31
0.0
210
0.0
220
0.0
230
1.0
  0
LINE
  5
9F
100
AcDbEntity
  8
0
 62
     7
 48
0.3
100
AcDbLine
 10
511.016846
 20
93.712967
 30
0.0
 11
511.016846
 21
105.712967
 31
0.0
210
0.0
220
0.0
230
1.0
  0
LINE
  5
A0
100
AcDbEntity
  8
0
 62
     7
100
AcDbLine
 10
511.016846
 20
105.712967
 30
0.0
 11
247.016846
 21
105.712967
 31
0.0
210
0.0
220
0.0
230
1.0
  0
LINE
  5
A1
100
AcDbEntity
  8
0
 62
     7
 48
0.3
100
AcDbLine
 10
247.016846
 20
93.712967
 30
0.0
 11
247.016846
 21
105.712967
 31
0.0
210
0.0
220
0.0
230
1.0
  0
LINE
  5
A2
100
AcDbEntity
  8
0
 62
     7
100
AcDbLine
 10
511.016846
 20
141.712967
 30
0.0
 11
247.016846
 21
141.712967
 31
0.0
210
0.0
220
0.0
230
1.0
  0
LINE
  5
A3
100
AcDbEntity
  8
0
 62
     7
 48
0.3
100
AcDbLine
 10
511.016846
 20
141.712967
 30
0.0
 11
511.016846
 21
153.712967
 31
0.0
210
0.0
220
0.0
230
1.0
  0
LINE
  5
A4
100
AcDbEntity
  8
0
 62
     7
100
AcDbLine
 10
511.016846
 20
153.712967
 30
0.0
 11
247.016846
 21
153.712967
 31
0.0
210
0.0
220
0.0
230
1.0
  0
LINE
  5
A5
100
AcDbEntity
  8
0
 62
     7
 48
0.3
100
AcDbLine
 10
247.016846
 20
141.712967
 30
0.0
 11
247.016846
 21
153.712967
 31
0.0
210
0.0
220
0.0
230
1.0
  0
LINE
  5
A6
100
AcDbEntity
  8
0
 62
     7
100
AcDbLine
 10
511.016846
 20
141.712967
 30
0.0
 11
247.016846
 21
141.712967
 31
0.0
210
0.0
220
0.0
230
1.0
  0
LINE
  5
A7
100
AcDbEntity
  8
0
 62
     7
100
AcDbLine
 10
247.016846
 20
105.712967
 30
0.0
 11
247.016846
 21
141.712967
 31
0.0
210
0.0
220
0.0
230
1.0
  0
LINE
  5
A8
100
AcDbEntity
  8
0
 62
     7
100
AcDbLine
 10
506.516846
 20
76.212967
 30
0.0
 11
523.516846
 21
56.712967
 31
0.0
210
0.0
220
0.0
230
1.0
  0
LINE
  5
A9
100
AcDbEntity
  8
0
 62
     7
100
AcDbLine
 10
575.516846
 20
76.212967
 30
0.0
 11
558.516846
 21
56.712967
 31
0.0
210
0.0
220
0.0
230
1.0
  0
LINE
  5
AA
100
AcDbEntity
  8
0
 62
     7
 48
0.075
100
AcDbLine
 10
575.516846
 20
79.212967
 30
0.0
 11
575.516846
 21
76.212967
 31
0.0
210
0.0
220
0.0
230
1.0
  0
LINE
  5
AB
100
AcDbEntity
  8
0
 62
     7
 48
0.225
100
AcDbLine
 10
575.516846
 20
88.212967
 30
0.0
 11
575.516846
 21
79.212967
 31
0.0
210
0.0
220
0.0
230
1.0
  0
LINE
  5
AC
100
AcDbEntity
  8
0
 62
     7
 48
0.1
100
AcDbLine
 10
571.516846
 20
79.212967
 30
0.0
 11
575.516846
 21
79.212967
 31
0.0
210
0.0
220
0.0
230
1.0
  0
LINE
  5
AD
100
AcDbEntity
  8
0
 62
     7
 48
0.1
100
AcDbLine
 10
575.516846
 20
88.212967
 30
0.0
 11
571.516846
 21
88.212967
 31
0.0
210
0.0
220
0.0
230
1.0
  0
LINE
  5
AE
100
AcDbEntity
  8
0
 62
     7
 48
0.225
100
AcDbLine
 10
571.516846
 20
88.212967
 30
0.0
 11
571.516846
 21
79.212967
 31
0.0
210
0.0
220
0.0
230
1.0
  0
LINE
  5
AF
100
AcDbEntity
  8
0
 62
     7
 48
0.075
100
AcDbLine
 10
506.516846
 20
79.212967
 30
0.0
 11
506.516846
 21
76.212967
 31
0.0
210
0.0
220
0.0
230
1.0
  0
LINE
  5
B0
100
AcDbEntity
  8
0
 62
     7
 48
0.225
100
AcDbLine
 10
506.516846
 20
88.212967
 30
0.0
 11
506.516846
 21
79.212967
 31
0.0
210
0.0
220
0.0
230
1.0
  0
LINE
  5
B1
100
AcDbEntity
  8
0
 62
     7
100
AcDbLine
 10
510.516846
 20
79.212967
 30
0.0
 11
571.516846
 21
79.212967
 31
0.0
210
0.0
220
0.0
230
1.0
  0
LINE
  5
B2
100
AcDbEntity
  8
0
 62
     7
100
AcDbLine
 10
510.516846
 20
88.212967
 30
0.0
 11
571.516846
 21
88.212967
 31
0.0
210
0.0
220
0.0
230
1.0
  0
LINE
  5
B3
100
AcDbEntity
  8
0
 62
     7
 48
0.225
100
AcDbLine
 10
510.516846
 20
88.212967
 30
0.0
 11
510.516846
 21
79.212967
 31
0.0
210
0.0
220
0.0
230
1.0
  0
LINE
  5
B4
100
AcDbEntity
  8
0
 62
     7
 48
0.1
100
AcDbLine
 10
506.516846
 20
79.212967
 30
0.0
 11
510.516846
 21
79.212967
 31
0.0
210
0.0
220
0.0
230
1.0
  0
LINE
  5
B5
100
AcDbEntity
  8
0
 62
     7
 48
0.1
100
AcDbLine
 10
510.516846
 20
88.212967
 30
0.0
 11
506.516846
 21
88.212967
 31
0.0
210
0.0
220
0.0
230
1.0
  0
LINE
  5
B6
100
AcDbEntity
  8
0
 62
     7
 48
0.1625
100
AcDbLine
 10
544.016846
 20
64.212967
 30
0.0
 11
544.016846
 21
57.712967
 31
0.0
210
0.0
220
0.0
230
1.0
  0
LINE
  5
B7
100
AcDbEntity
  8
0
 62
     7
 48
0.1625
100
AcDbLine
 10
538.016846
 20
57.712967
 30
0.0
 11
538.016846
 21
64.212967
 31
0.0
210
0.0
220
0.0
230
1.0
  0
ARC
  5
B8
100
AcDbEntity
  8
0
 62
     7
100
AcDbCircle
 10
541.016846
 20
64.212967
 30
0.0
 40
3.0
210
0.0
220
0.0
230
1.0
100
AcDbArc
 50
0.0
 51
179.999995
  0
ARC
  5
B9
100
AcDbEntity
  8
0
 62
     7
100
AcDbCircle
 10
541.016846
 20
64.212967
 30
0.0
 40
5.0
210
0.0
220
0.0
230
1.0
100
AcDbArc
 50
0.0
 51
180.000005
  0
LINE
  5
BA
100
AcDbEntity
  8
0
 62
     7
 48
0.3
100
AcDbLine
 10
523.516846
 20
56.712967
 30
0.0
 11
535.516846
 21
56.712967
 31
0.0
210
0.0
220
0.0
230
1.0
  0
LINE
  5
BB
100
AcDbEntity
  8
0
 62
     7
 48
0.0375
100
AcDbLine
 10
537.016846
 20
56.712967
 30
0.0
 11
535.516846
 21
56.712967
 31
0.0
210
0.0
220
0.0
230
1.0
  0
LINE
  5
BC
100
AcDbEntity
  8
0
 62
     7
 48
0.175
100
AcDbLine
 10
536.016846
 20
57.212967
 30
0.0
 11
536.016846
 21
64.212967
 31
0.0
210
0.0
220
0.0
230
1.0
  0
ARC
  5
BD
100
AcDbEntity
  8
0
 62
     7
100
AcDbCircle
 10
535.516846
 20
57.212967
 30
0.0
 40
0.5
210
0.0
220
0.0
230
1.0
100
AcDbArc
 50
269.999997
 51
360.0
  0
ARC
  5
BE
100
AcDbEntity
  8
0
 62
     7
100
AcDbCircle
 10
537.016846
 20
57.712967
 30
0.0
 40
1.0
210
0.0
220
0.0
230
1.0
100
AcDbArc
 50
269.999997
 51
360.0
  0
LINE
  5
BF
100
AcDbEntity
  8
0
 62
     7
 48
0.0375
100
AcDbLine
 10
546.516846
 20
56.712967
 30
0.0
 11
545.016846
 21
56.712967
 31
0.0
210
0.0
220
0.0
230
1.0
  0
ARC
  5
C0
100
AcDbEntity
  8
0
 62
     7
100
AcDbCircle
 10
545.016846
 20
57.712967
 30
0.0
 40
1.0
210
0.0
220
0.0
230
1.0
100
AcDbArc
 50
179.999995
 51
269.999997
  0
LINE
  5
C1
100
AcDbEntity
  8
0
 62
     7
 48
0.3
100
AcDbLine
 10
546.516846
 20
56.712967
 30
0.0
 11
558.516846
 21
56.712967
 31
0.0
210
0.0
220
0.0
230
1.0
  0
LINE
  5
C2
100
AcDbEntity
  8
0
 62
     7
 48
0.175
100
AcDbLine
 10
546.016846
 20
64.212967
 30
0.0
 11
546.016846
 21
57.212967
 31
0.0
210
0.0
220
0.0
230
1.0
  0
ARC
  5
C3
100
AcDbEntity
  8
0
 62
     7
100
AcDbCircle
 10
546.516846
 20
57.212967
 30
0.0
 40
0.5
210
0.0
220
0.0
230
1.0
100
AcDbArc
 50
180.000005
 51
269.999997
  0
LINE
  5
C4
100
AcDbEntity
  8
0
 62
     7
 48
0.1
100
AcDbLine
 10
547.770752
 20
75.212967
 30
0.0
 11
547.770752
 21
71.212967
 31
0.0
210
0.0
220
0.0
230
1.0
  0
LINE
  5
C5
100
AcDbEntity
  8
0
 62
     7
 48
0.025
100
AcDbLine
 10
547.770752
 20
70.212967
 30
0.0
 11
547.770752
 21
71.212967
 31
0.0
210
0.0
220
0.0
230
1.0
  0
LINE
  5
C6
100
AcDbEntity
  8
0
 62
     7
 48
0.3175
100
AcDbLine
 10
569.016846
 20
75.212967
 30
0.0
 11
556.316833
 21
75.212967
 31
0.0
210
0.0
220
0.0
230
1.0
  0
LINE
  5
C7
100
AcDbEntity
  8
0
 62
     7
 48
0.3175
100
AcDbLine
 10
556.316833
 20
75.212967
 30
0.0
 11
543.616821
 21
75.212967
 31
0.0
210
0.0
220
0.0
230
1.0
  0
LINE
  5
C8
100
AcDbEntity
  8
0
 62
     7
 48
0.464902
100
AcDbLine
 10
547.770752
 20
71.212967
 30
0.0
 11
566.366821
 21
71.212967
 31
0.0
210
0.0
220
0.0
230
1.0
  0
LINE
  5
C9
100
AcDbEntity
  8
0
 62
     7
 48
0.1
100
AcDbLine
 10
566.366821
 20
75.212967
 30
0.0
 11
566.366821
 21
71.212967
 31
0.0
210
0.0
220
0.0
230
1.0
  0
LINE
  5
CA
100
AcDbEntity
  8
0
 62
     7
 48
0.439902
100
AcDbLine
 10
547.770752
 20
70.212967
 30
0.0
 11
565.366821
 21
70.212967
 31
0.0
210
0.0
220
0.0
230
1.0
  0
LINE
  5
CB
100
AcDbEntity
  8
0
 62
     7
 48
0.035355
100
AcDbLine
 10
566.366821
 20
71.212967
 30
0.0
 11
565.366821
 21
70.212967
 31
0.0
210
0.0
220
0.0
230
1.0
  0
LINE
  5
CC
100
AcDbEntity
  8
0
 62
     7
 48
0.1
100
AcDbLine
 10
569.016846
 20
79.212967
 30
0.0
 11
569.016846
 21
75.212967
 31
0.0
210
0.0
220
0.0
230
1.0
  0
LINE
  5
CD
100
AcDbEntity
  8
0
 62
     7
 48
0.3175
100
AcDbLine
 10
569.016846
 20
79.212967
 30
0.0
 11
556.316833
 21
79.212967
 31
0.0
210
0.0
220
0.0
230
1.0
  0
LINE
  5
CE
100
AcDbEntity
  8
0
 62
     7
 48
0.1
100
AcDbLine
 10
556.316833
 20
79.212967
 30
0.0
 11
556.316833
 21
75.212967
 31
0.0
210
0.0
220
0.0
230
1.0
  0
LINE
  5
CF
100
AcDbEntity
  8
0
 62
     7
 48
0.3175
100
AcDbLine
 10
556.316833
 20
79.212967
 30
0.0
 11
543.616821
 21
79.212967
 31
0.0
210
0.0
220
0.0
230
1.0
  0
LINE
  5
D0
100
AcDbEntity
  8
0
 62
     7
 48
0.1
100
AcDbLine
 10
543.616821
 20
79.212967
 30
0.0
 11
543.616821
 21
75.212967
 31
0.0
210
0.0
220
0.0
230
1.0
  0
LINE
  5
D1
100
AcDbEntity
  8
0
 62
     7
100
AcDbLine
 10
511.016846
 20
88.212967
 30
0.0
 11
511.016846
 21
719.212952
 31
0.0
210
0.0
220
0.0
230
1.0
  0
LINE
  5
D2
100
AcDbEntity
  8
0
 62
     7
100
AcDbLine
 10
523.016846
 20
88.212967
 30
0.0
 11
523.016846
 21
719.212952
 31
0.0
210
0.0
220
0.0
230
1.0
  0
LINE
  5
D3
100
AcDbEntity
  8
0
 62
     7
 48
0.3
100
AcDbLine
 10
511.016846
 20
719.212952
 30
0.0
 11
523.016846
 21
719.212952
 31
0.0
210
0.0
220
0.0
230
1.0
  0
LINE
  5
D4
100
AcDbEntity
  8
0
 62
     7
100
AcDbLine
 10
559.016846
 20
88.212967
 30
0.0
 11
559.016846
 21
719.212952
 31
0.0
210
0.0
220
0.0
230
1.0
  0
LINE
  5
D5
100
AcDbEntity
  8
0
 62
     7
100
AcDbLine
 10
571.016846
 20
88.212967
 30
0.0
 11
571.016846
 21
719.212952
 31
0.0
210
0.0
220
0.0
230
1.0
  0
LINE
  5
D6
100
AcDbEntity
  8
0
 62
     7
 48
0.3
100
AcDbLine
 10
559.016846
 20
719.212952
 30
0.0
 11
571.016846
 21
719.212952
 31
0.0
210
0.0
220
0.0
230
1.0
  0
LINE
  5
D7
100
AcDbEntity
  8
0
 62
     7
100
AcDbLine
 10
523.016846
 20
719.212952
 30
0.0
 11
559.016846
 21
719.212952
 31
0.0
210
0.0
220
0.0
230
1.0
  0
LINE
  5
D8
100
AcDbEntity
  8
0
 62
     7
100
AcDbLine
 10
523.016846
 20
88.212967
 30
0.0
 11
523.016846
 21
719.212952
 31
0.0
210
0.0
220
0.0
230
1.0
  0
LINE
  5
D9
100
AcDbEntity
  8
0
 62
     7
100
AcDbLine
 10
575.516846
 20
731.212952
 30
0.0
 11
558.516846
 21
750.712952
 31
0.0
210
0.0
220
0.0
230
1.0
  0
LINE
  5
DA
100
AcDbEntity
  8
0
 62
     7
100
AcDbLine
 10
506.516846
 20
731.212952
 30
0.0
 11
523.516846
 21
750.712952
 31
0.0
210
0.0
220
0.0
230
1.0
  0
LINE
  5
DB
100
AcDbEntity
  8
0
 62
     7
 48
0.075
100
AcDbLine
 10
506.516846
 20
728.212952
 30
0.0
 11
506.516846
 21
731.212952
 31
0.0
210
0.0
220
0.0
230
1.0
  0
LINE
  5
DC
100
AcDbEntity
  8
0
 62
     7
 48
0.225
100
AcDbLine
 10
506.516846
 20
719.212952
 30
0.0
 11
506.516846
 21
728.212952
 31
0.0
210
0.0
220
0.0
230
1.0
  0
LINE
  5
DD
100
AcDbEntity
  8
0
 62
     7
 48
0.1
100
AcDbLine
 10
510.516846
 20
728.212952
 30
0.0
 11
506.516846
 21
728.212952
 31
0.0
210
0.0
220
0.0
230
1.0
  0
LINE
  5
DE
100
AcDbEntity
  8
0
 62
     7
 48
0.1
100
AcDbLine
 10
506.516846
 20
719.212952
 30
0.0
 11
510.516846
 21
719.212952
 31
0.0
210
0.0
220
0.0
230
1.0
  0
LINE
  5
DF
100
AcDbEntity
  8
0
 62
     7
 48
0.225
100
AcDbLine
 10
510.516846
 20
719.212952
 30
0.0
 11
510.516846
 21
728.212952
 31
0.0
210
0.0
220
0.0
230
1.0
  0
LINE
  5
E0
100
AcDbEntity
  8
0
 62
     7
 48
0.075
100
AcDbLine
 10
575.516846
 20
728.212952
 30
0.0
 11
575.516846
 21
731.212952
 31
0.0
210
0.0
220
0.0
230
1.0
  0
LINE
  5
E1
100
AcDbEntity
  8
0
 62
     7
 48
0.225
100
AcDbLine
 10
575.516846
 20
719.212952
 30
0.0
 11
575.516846
 21
728.212952
 31
0.0
210
0.0
220
0.0
230
1.0
  0
LINE
  5
E2
100
AcDbEntity
  8
0
 62
     7
100
AcDbLine
 10
571.516846
 20
728.212952
 30
0.0
 11
510.516846
 21
728.212952
 31
0.0
210
0.0
220
0.0
230
1.0
  0
LINE
  5
E3
100
AcDbEntity
  8
0
 62
     7
100
AcDbLine
 10
571.516846
 20
719.212952
 30
0.0
 11
510.516846
 21
719.212952
 31
0.0
210
0.0
220
0.0
230
1.0
  0
LINE
  5
E4
100
AcDbEntity
  8
0
 62
     7
 48
0.225
100
AcDbLine
 10
571.516846
 20
719.212952
 30
0.0
 11
571.516846
 21
728.212952
 31
0.0
210
0.0
220
0.0
230
1.0
  0
LINE
  5
E5
100
AcDbEntity
  8
0
 62
     7
 48
0.1
100
AcDbLine
 10
575.516846
 20
728.212952
 30
0.0
 11
571.516846
 21
728.212952
 31
0.0
210
0.0
220
0.0
230
1.0
  0
LINE
  5
E6
100
AcDbEntity
  8
0
 62
     7
 48
0.1
100
AcDbLine
 10
571.516846
 20
719.212952
 30
0.0
 11
575.516846
 21
719.212952
 31
0.0
210
0.0
220
0.0
230
1.0
  0
LINE
  5
E7
100
AcDbEntity
  8
0
 62
     7
 48
0.1625
100
AcDbLine
 10
538.016846
 20
743.212952
 30
0.0
 11
538.016846
 21
749.712952
 31
0.0
210
0.0
220
0.0
230
1.0
  0
LINE
  5
E8
100
AcDbEntity
  8
0
 62
     7
 48
0.1625
100
AcDbLine
 10
544.016846
 20
749.712952
 30
0.0
 11
544.016846
 21
743.212952
 31
0.0
210
0.0
220
0.0
230
1.0
  0
ARC
  5
E9
100
AcDbEntity
  8
0
 62
     7
100
AcDbCircle
 10
541.016846
 20
743.212952
 30
0.0
 40
3.0
210
0.0
220
0.0
230
1.0
100
AcDbArc
 50
179.999995
 51
0.0
  0
ARC
  5
EA
100
AcDbEntity
  8
0
 62
     7
100
AcDbCircle
 10
541.016846
 20
743.212952
 30
0.0
 40
5.0
210
0.0
220
0.0
230
1.0
100
AcDbArc
 50
180.000005
 51
360.0
  0
LINE
  5
EB
100
AcDbEntity
  8
0
 62
     7
 48
0.3
100
AcDbLine
 10
558.516846
 20
750.712952
 30
0.0
 11
546.516846
 21
750.712952
 31
0.0
210
0.0
220
0.0
230
1.0
  0
LINE
  5
EC
100
AcDbEntity
  8
0
 62
     7
 48
0.0375
100
AcDbLine
 10
545.016846
 20
750.712952
 30
0.0
 11
546.516846
 21
750.712952
 31
0.0
210
0.0
220
0.0
230
1.0
  0
LINE
  5
ED
100
AcDbEntity
  8
0
 62
     7
 48
0.175
100
AcDbLine
 10
546.016846
 20
750.212952
 30
0.0
 11
546.016846
 21
743.212952
 31
0.0
210
0.0
220
0.0
230
1.0
  0
ARC
  5
EE
100
AcDbEntity
  8
0
 62
     7
100
AcDbCircle
 10
546.516846
 20
750.212952
 30
0.0
 40
0.5
210
0.0
220
0.0
230
1.0
100
AcDbArc
 50
90.000003
 51
180.000005
  0
ARC
  5
EF
100
AcDbEntity
  8
0
 62
     7
100
AcDbCircle
 10
545.016846
 20
749.712952
 30
0.0
 40
1.0
210
0.0
220
0.0
230
1.0
100
AcDbArc
 50
90.000003
 51
180.000005
  0
LINE
  5
F0
100
AcDbEntity
  8
0
 62
     7
 48
0.0375
100
AcDbLine
 10
535.516846
 20
750.712952
 30
0.0
 11
537.016846
 21
750.712952
 31
0.0
210
0.0
220
0.0
230
1.0
  0
ARC
  5
F1
100
AcDbEntity
  8
0
 62
     7
100
AcDbCircle
 10
537.016846
 20
749.712952
 30
0.0
 40
1.0
210
0.0
220
0.0
230
1.0
100
AcDbArc
 50
0.0
 51
90.000003
  0
LINE
  5
F2
100
AcDbEntity
  8
0
 62
     7
 48
0.3
100
AcDbLine
 10
535.516846
 20
750.712952
 30
0.0
 11
523.516846
 21
750.712952
 31
0.0
210
0.0
220
0.0
230
1.0
  0
LINE
  5
F3
100
AcDbEntity
  8
0
 62
     7
 48
0.175
100
AcDbLine
 10
536.016846
 20
743.212952
 30
0.0
 11
536.016846
 21
750.212952
 31
0.0
210
0.0
220
0.0
230
1.0
  0
ARC
  5
F4
100
AcDbEntity
  8
0
 62
     7
100
AcDbCircle
 10
535.516846
 20
750.212952
 30
0.0
 40
0.5
210
0.0
220
0.0
230
1.0
100
AcDbArc
 50
0.0
 51
90.000003
  0
LINE
  5
F5
100
AcDbEntity
  8
0
 62
     7
100
AcDbLine
 10
235.016846
 20
158.212967
 30
0.0
 11
215.516846
 21
141.212967
 31
0.0
210
0.0
220
0.0
230
1.0
  0
LINE
  5
F6
100
AcDbEntity
  8
0
 62
     7
100
AcDbLine
 10
235.016846
 20
89.212967
 30
0.0
 11
215.516846
 21
106.212967
 31
0.0
210
0.0
220
0.0
230
1.0
  0
LINE
  5
F7
100
AcDbEntity
  8
0
 62
     7
 48
0.075
100
AcDbLine
 10
238.016846
 20
89.212967
 30
0.0
 11
235.016846
 21
89.212967
 31
0.0
210
0.0
220
0.0
230
1.0
  0
LINE
  5
F8
100
AcDbEntity
  8
0
 62
     7
 48
0.225
100
AcDbLine
 10
247.016846
 20
89.212967
 30
0.0
 11
238.016846
 21
89.212967
 31
0.0
210
0.0
220
0.0
230
1.0
  0
LINE
  5
F9
100
AcDbEntity
  8
0
 62
     7
 48
0.1
100
AcDbLine
 10
238.016846
 20
93.212967
 30
0.0
 11
238.016846
 21
89.212967
 31
0.0
210
0.0
220
0.0
230
1.0
  0
LINE
  5
FA
100
AcDbEntity
  8
0
 62
     7
 48
0.1
100
AcDbLine
 10
247.016846
 20
89.212967
 30
0.0
 11
247.016846
 21
93.212967
 31
0.0
210
0.0
220
0.0
230
1.0
  0
LINE
  5
FB
100
AcDbEntity
  8
0
 62
     7
 48
0.225
100
AcDbLine
 10
247.016846
 20
93.212967
 30
0.0
 11
238.016846
 21
93.212967
 31
0.0
210
0.0
220
0.0
230
1.0
  0
LINE
  5
FC
100
AcDbEntity
  8
0
 62
     7
 48
0.075
100
AcDbLine
 10
238.016846
 20
158.212967
 30
0.0
 11
235.016846
 21
158.212967
 31
0.0
210
0.0
220
0.0
230
1.0
  0
LINE
  5
FD
100
AcDbEntity
  8
0
 62
     7
 48
0.225
100
AcDbLine
 10
247.016846
 20
158.212967
 30
0.0
 11
238.016846
 21
158.212967
 31
0.0
210
0.0
220
0.0
230
1.0
  0
LINE
  5
FE
100
AcDbEntity
  8
0
 62
     7
100
AcDbLine
 10
238.016846
 20
154.212967
 30
0.0
 11
238.016846
 21
93.212967
 31
0.0
210
0.0
220
0.0
230
1.0
  0
LINE
  5
FF
100
AcDbEntity
  8
0
 62
     7
100
AcDbLine
 10
247.016846
 20
154.212967
 30
0.0
 11
247.016846
 21
93.212967
 31
0.0
210
0.0
220
0.0
230
1.0
  0
LINE
  5
100
100
AcDbEntity
  8
0
 62
     7
 48
0.225
100
AcDbLine
 10
247.016846
 20
154.212967
 30
0.0
 11
238.016846
 21
154.212967
 31
0.0
210
0.0
220
0.0
230
1.0
  0
LINE
  5
101
100
AcDbEntity
  8
0
 62
     7
 48
0.1
100
AcDbLine
 10
238.016846
 20
158.212967
 30
0.0
 11
238.016846
 21
154.212967
 31
0.0
210
0.0
220
0.0
230
1.0
  0
LINE
  5
102
100
AcDbEntity
  8
0
 62
     7
 48
0.1
100
AcDbLine
 10
247.016846
 20
154.212967
 30
0.0
 11
247.016846
 21
158.212967
 31
0.0
210
0.0
220
0.0
230
1.0
  0
LINE
  5
103
100
AcDbEntity
  8
0
 62
     7
 48
0.1625
100
AcDbLine
 10
223.016846
 20
120.712967
 30
0.0
 11
216.516846
 21
120.712967
 31
0.0
210
0.0
220
0.0
230
1.0
  0
LINE
  5
104
100
AcDbEntity
  8
0
 62
     7
 48
0.1625
100
AcDbLine
 10
216.516846
 20
126.712967
 30
0.0
 11
223.016846
 21
126.712967
 31
0.0
210
0.0
220
0.0
230
1.0
  0
ARC
  5
105
100
AcDbEntity
  8
0
 62
     7
100
AcDbCircle
 10
223.016846
 20
123.712967
 30
0.0
 40
3.0
210
0.0
220
0.0
230
1.0
100
AcDbArc
 50
269.999997
 51
90.000003
  0
ARC
  5
106
100
AcDbEntity
  8
0
 62
     7
100
AcDbCircle
 10
223.016846
 20
123.712967
 30
0.0
 40
5.0
210
0.0
220
0.0
230
1.0
100
AcDbArc
 50
269.999997
 51
90.000003
  0
LINE
  5
107
100
AcDbEntity
  8
0
 62
     7
 48
0.3
100
AcDbLine
 10
215.516846
 20
141.212967
 30
0.0
 11
215.516846
 21
129.212967
 31
0.0
210
0.0
220
0.0
230
1.0
  0
LINE
  5
108
100
AcDbEntity
  8
0
 62
     7
 48
0.0375
100
AcDbLine
 10
215.516846
 20
127.712967
 30
0.0
 11
215.516846
 21
129.212967
 31
0.0
210
0.0
220
0.0
230
1.0
  0
LINE
  5
109
100
AcDbEntity
  8
0
 62
     7
 48
0.175
100
AcDbLine
 10
216.016846
 20
128.712967
 30
0.0
 11
223.016846
 21
128.712967
 31
0.0
210
0.0
220
0.0
230
1.0
  0
ARC
  5
10A
100
AcDbEntity
  8
0
 62
     7
100
AcDbCircle
 10
216.016846
 20
129.212967
 30
0.0
 40
0.5
210
0.0
220
0.0
230
1.0
100
AcDbArc
 50
180.000005
 51
269.999997
  0
ARC
  5
10B
100
AcDbEntity
  8
0
 62
     7
100
AcDbCircle
 10
216.516846
 20
127.712967
 30
0.0
 40
1.0
210
0.0
220
0.0
230
1.0
100
AcDbArc
 50
180.000005
 51
269.999997
  0
LINE
  5
10C
100
AcDbEntity
  8
0
 62
     7
 48
0.0375
100
AcDbLine
 10
215.516846
 20
118.212967
 30
0.0
 11
215.516846
 21
119.712967
 31
0.0
210
0.0
220
0.0
230
1.0
  0
ARC
  5
10D
100
AcDbEntity
  8
0
 62
     7
100
AcDbCircle
 10
216.516846
 20
119.712967
 30
0.0
 40
1.0
210
0.0
220
0.0
230
1.0
100
AcDbArc
 50
90.000003
 51
180.000005
  0
LINE
  5
10E
100
AcDbEntity
  8
0
 62
     7
 48
0.3
100
AcDbLine
 10
215.516846
 20
118.212967
 30
0.0
 11
215.516846
 21
106.212967
 31
0.0
210
0.0
220
0.0
230
1.0
  0
LINE
  5
10F
100
AcDbEntity
  8
0
 62
     7
 48
0.175
100
AcDbLine
 10
223.016846
 20
118.712967
 30
0.0
 11
216.016846
 21
118.712967
 31
0.0
210
0.0
220
0.0
230
1.0
  0
ARC
  5
110
100
AcDbEntity
  8
0
 62
     7
100
AcDbCircle
 10
216.016846
 20
118.212967
 30
0.0
 40
0.5
210
0.0
220
0.0
230
1.0
100
AcDbArc
 50
90.000003
 51
180.000005
  0
ENDSEC
  0
SECTION
  2
OBJECTS
  0
DICTIONARY
  5
19
100
AcDbDictionary
  3
ACAD_GROUP
350
1A
  3
ACAD_MLINESTYLE
350
1B
  0
DICTIONARY
  5
1A
102
{ACAD_REACTORS
330
19
102
}
100
AcDbDictionary
  0
DICTIONARY
  5
1B
102
{ACAD_REACTORS
330
19
102
}
100
AcDbDictionary
  3
STANDARD
350
1C
  0
MLINESTYLE
  5
1C
102
{ACAD_REACTORS
330
1B
102
}
100
AcDbMlineStyle
  2
STANDARD
 70
     0
  3

 62
     0
 51
90.0
 52
90.0
 71
     2
 49
0.5
 62
   256
  6
BYLAYER
 49
-0.5
 62
   256
  6
BYLAYER
  0
ENDSEC
  0
EOF
