  0
SECTION
  2
HEADER
  9
$ACADVER
  1
AC1014
  9
$ACADMAINTVER
 70
     0
  9
$DWGCODEPAGE
  3
ANSI_1252
  9
$INSBASE
 10
0.0
 20
0.0
 30
0.0
  9
$EXTMIN
 10
0.0
 20
0.0
 30
0.0
  9
$EXTMAX
 10
885.247498
 20
937.530701
 30
2.0
  9
$LIMMIN
 10
0.0
 20
0.0
  9
$LIMMAX
 10
420.0
 20
297.0
  9
$ORTHOMODE
 70
     0
  9
$REGENMODE
 70
     1
  9
$FILLMODE
 70
     1
  9
$QTEXTMODE
 70
     0
  9
$MIRRTEXT
 70
     1
  9
$DRAGMODE
 70
     2
  9
$LTSCALE
 40
1.0
  9
$OSMODE
 70
     0
  9
$ATTMODE
 70
     1
  9
$TEXTSIZE
 40
2.5
  9
$TRACEWID
 40
1.0
  9
$TEXTSTYLE
  7
STANDARD
  9
$CLAYER
  8
0
  9
$CELTYPE
  6
BYLAYER
  9
$CECOLOR
 62
   256
  9
$CELTSCALE
 40
1.0
  9
$DELOBJ
 70
     1
  9
$DISPSILH
 70
     0
  9
$DIMSCALE
 40
1.0
  9
$DIMASZ
 40
2.5
  9
$DIMEXO
 40
0.625
  9
$DIMDLI
 40
3.75
  9
$DIMRND
 40
0.0
  9
$DIMDLE
 40
0.0
  9
$DIMEXE
 40
1.25
  9
$DIMTP
 40
0.0
  9
$DIMTM
 40
0.0
  9
$DIMTXT
 40
2.5
  9
$DIMCEN
 40
2.5
  9
$DIMTSZ
 40
0.0
  9
$DIMTOL
 70
     0
  9
$DIMLIM
 70
     0
  9
$DIMTIH
 70
     0
  9
$DIMTOH
 70
     0
  9
$DIMSE1
 70
     0
  9
$DIMSE2
 70
     0
  9
$DIMTAD
 70
     1
  9
$DIMZIN
 70
     8
  9
$DIMBLK
  1

  9
$DIMASO
 70
     1
  9
$DIMSHO
 70
     1
  9
$DIMPOST
  1

  9
$DIMAPOST
  1

  9
$DIMALT
 70
     0
  9
$DIMALTD
 70
     3
  9
$DIMALTF
 40
0.03937
  9
$DIMLFAC
 40
1.0
  9
$DIMTOFL
 70
     1
  9
$DIMTVP
 40
0.0
  9
$DIMTIX
 70
     0
  9
$DIMSOXD
 70
     0
  9
$DIMSAH
 70
     0
  9
$DIMBLK1
  1

  9
$DIMBLK2
  1

  9
$DIMSTYLE
  2

  9
$DIMCLRD
 70
     0
  9
$DIMCLRE
 70
     0
  9
$DIMCLRT
 70
     0
  9
$DIMTFAC
 40
1.0
  9
$DIMGAP
 40
0.625
  9
$DIMJUST
 70
     0
  9
$DIMSD1
 70
     0
  9
$DIMSD2
 70
     0
  9
$DIMTOLJ
 70
     0
  9
$DIMTZIN
 70
     8
  9
$DIMALTZ
 70
     0
  9
$DIMALTTZ
 70
     0
  9
$DIMFIT
 70
     0
  9
$DIMUPT
 70
     0
  9
$DIMUNIT
 70
     2
  9
$DIMDEC
 70
     2
  9
$DIMTDEC
 70
     2
  9
$DIMALTU
 70
     2
  9
$DIMALTTD
 70
     3
  9
$DIMTXSTY
  7
STANDARD
  9
$DIMAUNIT
 70
     0
  9
$LUNITS
 70
     2
  9
$LUPREC
 70
     4
  9
$SKETCHINC
 40
1.0
  9
$FILLETRAD
 40
2.5
  9
$AUNITS
 70
     0
  9
$AUPREC
 70
     0
  9
$MENU
  1
.
  9
$ELEVATION
 40
0.0
  9
$PELEVATION
 40
0.0
  9
$THICKNESS
 40
0.0
  9
$LIMCHECK
 70
     0
  9
$BLIPMODE
 70
     1
  9
$CHAMFERA
 40
2.5
  9
$CHAMFERB
 40
2.5
  9
$CHAMFERC
 40
0.0
  9
$CHAMFERD
 40
0.0
  9
$SKPOLY
 70
     0
  9
$TDCREATE
 40
0.000000000
  9
$TDUPDATE
 40
0.000000000
  9
$TDINDWG
 40
0.0000000000
  9
$TDUSRTIMER
 40
0.0000000000
  9
$USRTIMER
 70
     1
  9
$ANGBASE
 50
0.0
  9
$ANGDIR
 70
     0
  9
$PDMODE
 70
     0
  9
$PDSIZE
 40
0.0
  9
$PLINEWID
 40
0.0
  9
$COORDS
 70
     0
  9
$SPLFRAME
 70
     0
  9
$SPLINETYPE
 70
     6
  9
$SPLINESEGS
 70
     8
  9
$ATTDIA
 70
     0
  9
$ATTREQ
 70
     1
  9
$HANDLING
 70
     1
  9
$HANDSEED
  5
23C
  9
$SURFTAB1
 70
     6
  9
$SURFTAB2
 70
     6
  9
$SURFTYPE
 70
     6
  9
$SURFU
 70
     6
  9
$SURFV
 70
     6
  9
$UCSNAME
  2

  9
$UCSORG
 10
0.0
 20
0.0
 30
0.0
  9
$UCSXDIR
 10
1.0
 20
0.0
 30
0.0
  9
$UCSYDIR
 10
0.0
 20
1.0
 30
0.0
  9
$PUCSNAME
  2

  9
$PUCSORG
 10
0.0
 20
0.0
 30
0.0
  9
$PUCSXDIR
 10
1.0
 20
0.0
 30
0.0
  9
$PUCSYDIR
 10
0.0
 20
1.0
 30
0.0
  9
$USERI1
 70
     0
  9
$USERI2
 70
     0
  9
$USERI3
 70
     0
  9
$USERI4
 70
     0
  9
$USERI5
 70
     0
  9
$USERR1
 40
0.0
  9
$USERR2
 40
0.0
  9
$USERR3
 40
0.0
  9
$USERR4
 40
0.0
  9
$USERR5
 40
0.0
  9
$WORLDVIEW
 70
     1
  9
$SHADEDGE
 70
     3
  9
$SHADEDIF
 70
    70
  9
$TILEMODE
 70
     1
  9
$MAXACTVP
 70
    48
  9
$PINSBASE
 10
0.0
 20
0.0
 30
0.0
  9
$PLIMCHECK
 70
     0
  9
$PEXTMIN
 10
0.0
 20
0.0
 30
0.0
  9
$PEXTMAX
 10
885.247498
 20
937.530701
 30
2.0
  9
$PLIMMIN
 10
0.0
 20
0.0
  9
$PLIMMAX
 10
420.0
 20
297.0
  9
$UNITMODE
 70
     0
  9
$VISRETAIN
 70
     0
  9
$PLINEGEN
 70
     0
  9
$PSLTSCALE
 70
     1
  9
$TREEDEPTH
 70
  3020
  9
$PICKSTYLE
 70
     1
  9
$CMLSTYLE
  2
STANDARD
  9
$CMLJUST
 70
     0
  9
$CMLSCALE
 40
20.0
  9
$PROXYGRAPHICS
 70
     1
  9
$MEASUREMENT
 70
     1
  0
ENDSEC
  0
SECTION
  2
CLASSES
  0
CLASS
  1
LWPOLYLINE
  2
AcDbPolyline
  3
"AutoCAD"
 90
        0
280
     0
281
     1
  0
CLASS
  1
IMAGE
  2
AcDbRasterImage
  3
ISM
 90
      127
280
     0
281
     1
  0
CLASS
  1
OLE2FRAME
  2
AcDbOle2Frame
  3
""
 90
        0
280
     0
281
     1
  0
CLASS
  1
HATCH
  2
AcDbHatch
  3
"ACAD_SEDONA"
 90
        0
280
     0
281
     1
  0
CLASS
  1
DICTIONARYVAR
  2
AcDbDictionaryVar
  3
"AutoCAD"
 90
        0
280
     0
281
     0
  0
CLASS
  1
RASTERVARIABLES
  2
AcDbRasterVariables
  3
ISM
 90
        0
280
     0
281
     0
  0
CLASS
  1
IMAGEDEF
  2
AcDbRasterImageDef
  3
ISM
 90
        0
280
     0
281
     0
  0
CLASS
  1
IMAGEDEF_REACTOR
  2
AcDbRasterImageDefReactor
  3
ISM
 90
        1
280
     0
281
     0
  0
CLASS
  1
IDBUFFER
  2
AcDbIdBuffer
  3
"Acad"
 90
        0
280
     0
281
     0
  0
CLASS
  1
SPATIAL_FILTER
  2
AcDbSpatialFilter
  3
"Acad"
 90
        0
280
     0
281
     0
  0
CLASS
  1
XRECORD
  2
AcDbXrecord
  3
"<Built In>"
 90
        0
280
     0
281
     0
  0
CLASS
  1
SORTENTSTABLE
  2
AcDbSortentsTable
  3
"AutoCAD"
 90
        0
280
     0
281
     0
  0
CLASS
  1
LAYER_INDEX
  2
AcDbLayerIndex
  3
"Acad"
 90
        0
280
     0
281
     0
  0
CLASS
  1
SPATIAL_INDEX
  2
AcDbSpatialIndex
  3
"Acad"
 90
        0
280
     0
281
     0
  0
CLASS
  1
OBJECT_PTR
  2
CAseDLPNTableRecord
  3
"ASE-LPNTableRecord"
 90
        1
280
     0
281
     0
  0
CLASS
  1
LAYOUT
  2
AcDbLayout
  3
"AutoCAD 2000"
 90
        0
280
     0
281
     0
  0
CLASS
  1
PLOTSETTINGS
  2
AcDbPlotSettings
  3
"AutoCAD 2000"
 90
        0
280
     0
281
     0
  0
CLASS
  1
ACDBDICTIONARYWDFLT
  2
AcDbDictionaryWithDefault
  3
"AutoCAD 2000"
 90
        0
280
     0
281
     0
  0
CLASS
  1
ACDBPLACEHOLDER
  2
AcDbPlaceHolder
  3
"AutoCAD 2000"
 90
        0
280
     0
281
     0
  0
CLASS
  1
VBA_PROJECT
  2
AcDbVbaProject
  3
"acadvba"
 90
        0
280
     0
281
     0
  0
CLASS
  1
WIPEOUT
  2
AcDbWipeout
  3
WipeOut|AutoCAD Express Tool|expresstools@autodesk.com
 90
      127
280
     0
281
     1
  0
CLASS
  1
WIPEOUTVARIABLES
  2
AcDbWipeoutVariables
  3
WipeOut|AutoCAD Express Tool|expresstools@autodesk.com
 90
        0
280
     0
281
     0
  0
CLASS
  1
RTEXT
  2
RText
  3
RText|AutoCAD Express Tool|expresstools@autodesk.com
 90
        0
280
     0
281
     1
  0
CLASS
  1
ARCALIGNEDTEXT
  2
AcDbArcAlignedText
  3
ATEXT|AutoCAD Express Tool|expresstools@autodesk.com
 90
        0
280
     0
281
     1
  0
ENDSEC
  0
SECTION
  2
TABLES
  0
TABLE
  2
VPORT
  5
7
100
AcDbSymbolTable
 70
     1
  0
VPORT
  5
15
100
AcDbSymbolTableRecord
100
AcDbViewportTableRecord
  2
*ACTIVE
 70
     0
 10
0.0
 20
0.0
 11
1.0
 21
1.0
 12
6.591288
 22
4.579184
 13
0.0
 23
0.0
 14
1.0
 24
1.0
 15
0.0
 25
0.0
 16
0.0
 26
0.0
 36
1.0
 17
0.0
 27
0.0
 37
0.0
 40
9.158369
 41
0.688564
 42
50.0
 43
0.0
 44
0.0
 50
0.0
 51
0.0
 71
     0
 72
   100
 73
     1
 74
     1
 75
     0
 76
     0
 77
     0
 78
     0
  0
ENDTAB
  0
TABLE
  2
LTYPE
  5
4
100
AcDbSymbolTable
 70
     3
  0
LTYPE
  5
11
100
AcDbSymbolTableRecord
100
AcDbLinetypeTableRecord
  2
BYBLOCK
 70
    64
  3

 72
    65
 73
     0
 40
0.0
  0
LTYPE
  5
12
100
AcDbSymbolTableRecord
100
AcDbLinetypeTableRecord
  2
BYLAYER
 70
    64
  3

 72
    65
 73
     0
 40
0.0
  0
LTYPE
  5
13
100
AcDbSymbolTableRecord
100
AcDbLinetypeTableRecord
  2
CONTINUOUS
 70
    64
  3
Solid line
 72
    65
 73
     0
 40
0.0
  0
ENDTAB
  0
TABLE
  2
LAYER
  5
2
100
AcDbSymbolTable
 70
     1
  0
LAYER
  5
14
100
AcDbSymbolTableRecord
100
AcDbLayerTableRecord
  2
0
 70
     0
 62
     7
  6
CONTINUOUS
  0
ENDTAB
  0
TABLE
  2
STYLE
  5
3
100
AcDbSymbolTable
 70
     1
  0
STYLE
  5
17
100
AcDbSymbolTableRecord
100
AcDbTextStyleTableRecord
  2
STANDARD
 70
     0
 40
0.0
 41
1.0
 50
0.0
 71
     0
 42
0.0
  3
txt
  4

  0
ENDTAB
  0
TABLE
  2
VIEW
  5
5
100
AcDbSymbolTable
 70
     0
  0
ENDTAB
  0
TABLE
  2
UCS
  5
6
100
AcDbSymbolTable
 70
     0
  0
ENDTAB
  0
TABLE
  2
APPID
  5
8
100
AcDbSymbolTable
 70
     1
  0
APPID
  5
16
100
AcDbSymbolTableRecord
100
AcDbRegAppTableRecord
  2
ACAD
 70
     0
  0
ENDTAB
  0
TABLE
  2
DIMSTYLE
  5
9
100
AcDbSymbolTable
 70
     1
  0
DIMSTYLE
105
18
100
AcDbSymbolTableRecord
100
AcDbDimStyleTableRecord
  2
STANDARD
 70
     0
  3

  4

  5

  6

  7

 40
1.0
 41
0.18
 42
0.0625
 43
0.38
 44
0.18
 45
0.0
 46
0.0
 47
0.0
 48
0.0
 71
     0
 72
     0
 73
     1
 74
     1
 75
     0
 76
     0
 77
     0
 78
     0
140
0.18
141
0.09
142
0.0
143
25.4
144
1.0
145
0.0
146
1.0
147
0.09
170
     0
171
     2
172
     0
173
     0
174
     0
175
     0
176
     0
177
     0
178
     0
270
     2
271
     4
272
     4
273
     2
274
     2
275
     0
280
     0
281
     0
282
     0
283
     1
284
     0
285
     0
286
     0
287
     3
288
     0
340
17
  0
ENDTAB
  0
TABLE
  2
BLOCK_RECORD
  5
1
100
AcDbSymbolTable
 70
     0
  0
BLOCK_RECORD
  5
A
100
AcDbSymbolTableRecord
100
AcDbBlockTableRecord
  2
*MODEL_SPACE
  0
BLOCK_RECORD
  5
B
100
AcDbSymbolTableRecord
100
AcDbBlockTableRecord
  2
*PAPER_SPACE
  0
ENDTAB
  0
ENDSEC
  0
SECTION
  2
BLOCKS
  0
BLOCK
  5
D
100
AcDbEntity
  8
0
100
AcDbBlockBegin
  2
*MODEL_SPACE
 70
     0
 10
0.0
 20
0.0
 30
0.0
  3
*MODEL_SPACE
  1

  0
ENDBLK
  5
E
100
AcDbEntity
  8
0
100
AcDbBlockEnd
  0
BLOCK
  5
F
100
AcDbEntity
 67
     1
  8
0
100
AcDbBlockBegin
  2
*PAPER_SPACE
 70
     0
 10
0.0
 20
0.0
 30
0.0
  3
*PAPER_SPACE
  1

  0
ENDBLK
  5
10
100
AcDbEntity
 67
     1
  8
0
100
AcDbBlockEnd
  0
ENDSEC
  0
SECTION
  2
ENTITIES
  0
VIEWPORT
  5
23B
100
AcDbEntity
 67
     1
  8
0
 62
     0
 48
0.0
100
AcDbViewport
 10
0.0
 20
0.0
 30
0.0
 40
1000.0
 41
1000.0
 68
     1
 69
     1
1001
ACAD
1000
MVIEW
1002
{
1070
    16
1010
0.0
1020
0.0
1030
0.0
1010
0.0
1020
0.0
1030
1.0
1040
0.0
1040
1000.0
1040
0.0
1040
0.0
1040
50.0
1040
0.0
1040
0.0
1070
     0
1070
   100
1070
     1
1070
     1
1070
     0
1070
     0
1070
     0
1070
     0
1040
0.0
1040
0.0
1040
0.0
1040
1.0
1040
1.0
1040
1.0
1040
1.0
1070
     0
1002
{
1002
}
1002
}
  0
LINE
  5
1D
100
AcDbEntity
  8
0
 62
     7
100
AcDbLine
 10
574.5
 20
119.499992
 30
0.0
 11
574.5
 21
4.499992
 31
0.0
210
0.0
220
0.0
230
1.0
  0
LINE
  5
1E
100
AcDbEntity
  8
0
 62
     7
 48
0.1875
100
AcDbLine
 10
563.0
 20
51.999992
 30
0.0
 11
563.0
 21
44.499992
 31
0.0
210
0.0
220
0.0
230
1.0
  0
LINE
  5
1F
100
AcDbEntity
  8
0
 62
     7
 48
0.1875
100
AcDbLine
 10
563.0
 20
44.499992
 30
0.0
 11
563.0
 21
36.999992
 31
0.0
210
0.0
220
0.0
230
1.0
  0
LINE
  5
20
100
AcDbEntity
  8
0
 62
     7
 48
0.1875
100
AcDbLine
 10
563.0
 20
26.999992
 30
0.0
 11
563.0
 21
19.499992
 31
0.0
210
0.0
220
0.0
230
1.0
  0
LINE
  5
21
100
AcDbEntity
  8
0
 62
     7
 48
0.1875
100
AcDbLine
 10
563.0
 20
19.499992
 30
0.0
 11
563.0
 21
11.999992
 31
0.0
210
0.0
220
0.0
230
1.0
  0
LINE
  5
22
100
AcDbEntity
  8
0
 62
     7
 48
0.08
100
AcDbLine
 10
574.5
 20
9.199989
 30
0.0
 11
571.299988
 21
9.199989
 31
0.0
210
0.0
220
0.0
230
1.0
  0
LINE
  5
23
100
AcDbEntity
  8
0
 62
     7
 48
0.08
100
AcDbLine
 10
574.5
 20
19.499992
 30
0.0
 11
571.299988
 21
19.499992
 31
0.0
210
0.0
220
0.0
230
1.0
  0
LINE
  5
24
100
AcDbEntity
  8
0
 62
     7
 48
0.2575
100
AcDbLine
 10
571.299988
 20
9.199989
 30
0.0
 11
571.299988
 21
19.499992
 31
0.0
210
0.0
220
0.0
230
1.0
  0
LINE
  5
25
100
AcDbEntity
  8
0
 62
     7
 48
0.08
100
AcDbLine
 10
574.5
 20
29.799995
 30
0.0
 11
571.299988
 21
29.799995
 31
0.0
210
0.0
220
0.0
230
1.0
  0
LINE
  5
26
100
AcDbEntity
  8
0
 62
     7
 48
0.2575
100
AcDbLine
 10
571.299988
 20
19.499992
 30
0.0
 11
571.299988
 21
29.799995
 31
0.0
210
0.0
220
0.0
230
1.0
  0
LINE
  5
27
100
AcDbEntity
  8
0
 62
     7
 48
0.08
100
AcDbLine
 10
574.5
 20
34.199989
 30
0.0
 11
571.299988
 21
34.199989
 31
0.0
210
0.0
220
0.0
230
1.0
  0
LINE
  5
28
100
AcDbEntity
  8
0
 62
     7
 48
0.08
100
AcDbLine
 10
574.5
 20
44.499992
 30
0.0
 11
571.299988
 21
44.499992
 31
0.0
210
0.0
220
0.0
230
1.0
  0
LINE
  5
29
100
AcDbEntity
  8
0
 62
     7
 48
0.2575
100
AcDbLine
 10
571.299988
 20
34.199989
 30
0.0
 11
571.299988
 21
44.499992
 31
0.0
210
0.0
220
0.0
230
1.0
  0
LINE
  5
2A
100
AcDbEntity
  8
0
 62
     7
 48
0.08
100
AcDbLine
 10
574.5
 20
54.799995
 30
0.0
 11
571.299988
 21
54.799995
 31
0.0
210
0.0
220
0.0
230
1.0
  0
LINE
  5
2B
100
AcDbEntity
  8
0
 62
     7
 48
0.2575
100
AcDbLine
 10
571.299988
 20
44.499992
 30
0.0
 11
571.299988
 21
54.799995
 31
0.0
210
0.0
220
0.0
230
1.0
  0
LINE
  5
2C
100
AcDbEntity
  8
0
 62
     7
 48
0.0375
100
AcDbLine
 10
576.0
 20
4.499992
 30
0.0
 11
574.5
 21
4.499992
 31
0.0
210
0.0
220
0.0
230
1.0
  0
LINE
  5
2D
100
AcDbEntity
  8
0
 62
     7
 48
0.0375
100
AcDbLine
 10
576.0
 20
119.499992
 30
0.0
 11
574.5
 21
119.499992
 31
0.0
210
0.0
220
0.0
230
1.0
  0
LINE
  5
2E
100
AcDbEntity
  8
0
 62
     7
 48
0.2625
100
AcDbLine
 10
563.5
 20
76.499992
 30
0.0
 11
563.5
 21
65.999992
 31
0.0
210
0.0
220
0.0
230
1.0
  0
LINE
  5
2F
100
AcDbEntity
  8
0
 62
     7
 48
0.0875
100
AcDbLine
 10
563.5
 20
65.999992
 30
0.0
 11
563.5
 21
62.499992
 31
0.0
210
0.0
220
0.0
230
1.0
  0
LINE
  5
30
100
AcDbEntity
  8
0
 62
     7
 48
0.2375
100
AcDbLine
 10
570.5
 20
59.999992
 30
0.0
 11
570.5
 21
69.499992
 31
0.0
210
0.0
220
0.0
230
1.0
  0
LINE
  5
31
100
AcDbEntity
  8
0
 62
     7
 48
0.2375
100
AcDbLine
 10
570.5
 20
69.499992
 30
0.0
 11
570.5
 21
78.999992
 31
0.0
210
0.0
220
0.0
230
1.0
  0
LINE
  5
32
100
AcDbEntity
  8
0
 62
     7
 48
0.1
100
AcDbLine
 10
574.5
 20
59.999992
 30
0.0
 11
570.5
 21
59.999992
 31
0.0
210
0.0
220
0.0
230
1.0
  0
LINE
  5
33
100
AcDbEntity
  8
0
 62
     7
 48
0.1
100
AcDbLine
 10
574.5
 20
69.499992
 30
0.0
 11
570.5
 21
69.499992
 31
0.0
210
0.0
220
0.0
230
1.0
  0
LINE
  5
34
100
AcDbEntity
  8
0
 62
     7
 48
0.1
100
AcDbLine
 10
574.5
 20
78.999992
 30
0.0
 11
570.5
 21
78.999992
 31
0.0
210
0.0
220
0.0
230
1.0
  0
LINE
  5
35
100
AcDbEntity
  8
0
 62
     7
 48
0.2075
100
AcDbLine
 10
571.299988
 20
36.999992
 30
0.0
 11
563.0
 21
36.999992
 31
0.0
210
0.0
220
0.0
230
1.0
  0
LINE
  5
36
100
AcDbEntity
  8
0
 62
     7
 48
0.2075
100
AcDbLine
 10
571.299988
 20
51.999992
 30
0.0
 11
563.0
 21
51.999992
 31
0.0
210
0.0
220
0.0
230
1.0
  0
LINE
  5
37
100
AcDbEntity
  8
0
 62
     7
 48
0.2075
100
AcDbLine
 10
571.299988
 20
11.999992
 30
0.0
 11
563.0
 21
11.999992
 31
0.0
210
0.0
220
0.0
230
1.0
  0
LINE
  5
38
100
AcDbEntity
  8
0
 62
     7
 48
0.2075
100
AcDbLine
 10
571.299988
 20
26.999992
 30
0.0
 11
563.0
 21
26.999992
 31
0.0
210
0.0
220
0.0
230
1.0
  0
LINE
  5
39
100
AcDbEntity
  8
0
 62
     7
 48
0.175
100
AcDbLine
 10
570.5
 20
76.499992
 30
0.0
 11
563.5
 21
76.499992
 31
0.0
210
0.0
220
0.0
230
1.0
  0
LINE
  5
3A
100
AcDbEntity
  8
0
 62
     7
 48
0.175
100
AcDbLine
 10
570.5
 20
62.499992
 30
0.0
 11
563.5
 21
62.499992
 31
0.0
210
0.0
220
0.0
230
1.0
  0
LINE
  5
3B
100
AcDbEntity
  8
0
 62
     7
100
AcDbLine
 10
576.0
 20
-65.500008
 30
0.0
 11
576.0
 21
906.5
 31
0.0
210
0.0
220
0.0
230
1.0
  0
LINE
  5
3C
100
AcDbEntity
  8
0
 62
     7
 48
0.0625
100
AcDbLine
 10
576.0
 20
-65.500008
 30
0.0
 11
578.5
 21
-65.500008
 31
0.0
210
0.0
220
0.0
230
1.0
  0
LINE
  5
3D
100
AcDbEntity
  8
0
 62
     7
100
AcDbLine
 10
578.5
 20
-65.500008
 30
0.0
 11
578.5
 21
906.5
 31
0.0
210
0.0
220
0.0
230
1.0
  0
LINE
  5
3E
100
AcDbEntity
  8
0
 62
     7
 48
0.0625
100
AcDbLine
 10
576.0
 20
906.5
 30
0.0
 11
578.5
 21
906.5
 31
0.0
210
0.0
220
0.0
230
1.0
  0
LINE
  5
3F
100
AcDbEntity
  8
0
 62
     7
100
AcDbLine
 10
623.5
 20
-65.500008
 30
0.0
 11
623.5
 21
906.5
 31
0.0
210
0.0
220
0.0
230
1.0
  0
LINE
  5
40
100
AcDbEntity
  8
0
 62
     7
 48
0.0625
100
AcDbLine
 10
623.5
 20
-65.500008
 30
0.0
 11
626.0
 21
-65.500008
 31
0.0
210
0.0
220
0.0
230
1.0
  0
LINE
  5
41
100
AcDbEntity
  8
0
 62
     7
100
AcDbLine
 10
626.0
 20
-65.500008
 30
0.0
 11
626.0
 21
906.5
 31
0.0
210
0.0
220
0.0
230
1.0
  0
LINE
  5
42
100
AcDbEntity
  8
0
 62
     7
 48
0.0625
100
AcDbLine
 10
623.5
 20
906.5
 30
0.0
 11
626.0
 21
906.5
 31
0.0
210
0.0
220
0.0
230
1.0
  0
LINE
  5
43
100
AcDbEntity
  8
0
 62
     7
100
AcDbLine
 10
578.5
 20
-65.500008
 30
0.0
 11
623.5
 21
-65.500008
 31
0.0
210
0.0
220
0.0
230
1.0
  0
LINE
  5
44
100
AcDbEntity
  8
0
 62
     7
100
AcDbLine
 10
578.5
 20
-65.500008
 30
0.0
 11
578.5
 21
906.5
 31
0.0
210
0.0
220
0.0
230
1.0
  0
LINE
  5
45
100
AcDbEntity
  8
0
 62
     7
 48
0.36875
100
AcDbLine
 10
604.25
 20
-81.750008
 30
0.0
 11
604.25
 21
-96.500008
 31
0.0
210
0.0
220
0.0
230
1.0
  0
LINE
  5
46
100
AcDbEntity
  8
0
 62
     7
 48
0.36875
100
AcDbLine
 10
597.75
 20
-96.500008
 30
0.0
 11
597.75
 21
-81.750008
 31
0.0
210
0.0
220
0.0
230
1.0
  0
ARC
  5
47
100
AcDbEntity
  8
0
 62
     7
100
AcDbCircle
 10
601.0
 20
-81.750008
 30
0.0
 40
3.25
210
0.0
220
0.0
230
1.0
100
AcDbArc
 50
360.0
 51
180.000005
  0
LINE
  5
48
100
AcDbEntity
  8
0
 62
     7
 48
0.05
100
AcDbLine
 10
626.0
 20
-68.500008
 30
0.0
 11
626.0
 21
-70.500008
 31
0.0
210
0.0
220
0.0
230
1.0
  0
LINE
  5
49
100
AcDbEntity
  8
0
 62
     7
 48
0.05
100
AcDbLine
 10
576.0
 20
-68.500008
 30
0.0
 11
576.0
 21
-70.500008
 31
0.0
210
0.0
220
0.0
230
1.0
  0
LINE
  5
4A
100
AcDbEntity
  8
0
 62
     7
 48
0.05
100
AcDbLine
 10
576.0
 20
-68.500008
 30
0.0
 11
576.0
 21
-66.500008
 31
0.0
210
0.0
220
0.0
230
1.0
  0
LINE
  5
4B
100
AcDbEntity
  8
0
 62
     7
 48
0.05
100
AcDbLine
 10
578.0
 20
-68.500008
 30
0.0
 11
576.0
 21
-68.500008
 31
0.0
210
0.0
220
0.0
230
1.0
  0
LINE
  5
4C
100
AcDbEntity
  8
0
 62
     7
 48
0.05
100
AcDbLine
 10
578.0
 20
-68.500008
 30
0.0
 11
578.0
 21
-66.500008
 31
0.0
210
0.0
220
0.0
230
1.0
  0
LINE
  5
4D
100
AcDbEntity
  8
0
 62
     7
100
AcDbLine
 10
624.0
 20
-68.500008
 30
0.0
 11
578.0
 21
-68.500008
 31
0.0
210
0.0
220
0.0
230
1.0
  0
LINE
  5
4E
100
AcDbEntity
  8
0
 62
     7
 48
0.05
100
AcDbLine
 10
626.0
 20
-68.500008
 30
0.0
 11
624.0
 21
-68.500008
 31
0.0
210
0.0
220
0.0
230
1.0
  0
LINE
  5
4F
100
AcDbEntity
  8
0
 62
     7
100
AcDbLine
 10
624.0
 20
-66.500008
 30
0.0
 11
578.0
 21
-66.500008
 31
0.0
210
0.0
220
0.0
230
1.0
  0
LINE
  5
50
100
AcDbEntity
  8
0
 62
     7
 48
0.05
100
AcDbLine
 10
624.0
 20
-68.500008
 30
0.0
 11
624.0
 21
-66.500008
 31
0.0
210
0.0
220
0.0
230
1.0
  0
LINE
  5
51
100
AcDbEntity
  8
0
 62
     7
 48
0.05
100
AcDbLine
 10
626.0
 20
-68.500008
 30
0.0
 11
626.0
 21
-66.500008
 31
0.0
210
0.0
220
0.0
230
1.0
  0
LINE
  5
52
100
AcDbEntity
  8
0
 62
     7
 48
0.49375
100
AcDbLine
 10
624.0
 20
-96.500008
 30
0.0
 11
604.25
 21
-96.500008
 31
0.0
210
0.0
220
0.0
230
1.0
  0
LINE
  5
53
100
AcDbEntity
  8
0
 62
     7
100
AcDbLine
 10
626.0
 20
-70.500008
 30
0.0
 11
626.0
 21
-94.500008
 31
0.0
210
0.0
220
0.0
230
1.0
  0
ARC
  5
54
100
AcDbEntity
  8
0
 62
     7
100
AcDbCircle
 10
624.0
 20
-94.500008
 30
0.0
 40
2.0
210
0.0
220
0.0
230
1.0
100
AcDbArc
 50
269.999997
 51
360.0
  0
LINE
  5
55
100
AcDbEntity
  8
0
 62
     7
 48
0.49375
100
AcDbLine
 10
597.75
 20
-96.500008
 30
0.0
 11
578.0
 21
-96.500008
 31
0.0
210
0.0
220
0.0
230
1.0
  0
LINE
  5
56
100
AcDbEntity
  8
0
 62
     7
100
AcDbLine
 10
576.0
 20
-70.500008
 30
0.0
 11
576.0
 21
-94.500008
 31
0.0
210
0.0
220
0.0
230
1.0
  0
ARC
  5
57
100
AcDbEntity
  8
0
 62
     7
100
AcDbCircle
 10
578.0
 20
-94.500008
 30
0.0
 40
2.0
210
0.0
220
0.0
230
1.0
100
AcDbArc
 50
180.000005
 51
269.999997
  0
LINE
  5
58
100
AcDbEntity
  8
0
 62
     7
 48
0.36875
100
AcDbLine
 10
597.75
 20
922.75
 30
0.0
 11
597.75
 21
937.5
 31
0.0
210
0.0
220
0.0
230
1.0
  0
LINE
  5
59
100
AcDbEntity
  8
0
 62
     7
 48
0.36875
100
AcDbLine
 10
604.25
 20
937.5
 30
0.0
 11
604.25
 21
922.75
 31
0.0
210
0.0
220
0.0
230
1.0
  0
ARC
  5
5A
100
AcDbEntity
  8
0
 62
     7
100
AcDbCircle
 10
601.0
 20
922.75
 30
0.0
 40
3.25
210
0.0
220
0.0
230
1.0
100
AcDbArc
 50
179.999995
 51
0.0
  0
LINE
  5
5B
100
AcDbEntity
  8
0
 62
     7
 48
0.05
100
AcDbLine
 10
576.0
 20
909.5
 30
0.0
 11
576.0
 21
911.5
 31
0.0
210
0.0
220
0.0
230
1.0
  0
LINE
  5
5C
100
AcDbEntity
  8
0
 62
     7
 48
0.05
100
AcDbLine
 10
626.0
 20
909.5
 30
0.0
 11
626.0
 21
911.5
 31
0.0
210
0.0
220
0.0
230
1.0
  0
LINE
  5
5D
100
AcDbEntity
  8
0
 62
     7
 48
0.05
100
AcDbLine
 10
624.0
 20
907.5
 30
0.0
 11
626.0
 21
907.5
 31
0.0
210
0.0
220
0.0
230
1.0
  0
LINE
  5
5E
100
AcDbEntity
  8
0
 62
     7
 48
0.05
100
AcDbLine
 10
626.0
 20
909.5
 30
0.0
 11
626.0
 21
907.5
 31
0.0
210
0.0
220
0.0
230
1.0
  0
LINE
  5
5F
100
AcDbEntity
  8
0
 62
     7
 48
0.05
100
AcDbLine
 10
624.0
 20
909.5
 30
0.0
 11
626.0
 21
909.5
 31
0.0
210
0.0
220
0.0
230
1.0
  0
LINE
  5
60
100
AcDbEntity
  8
0
 62
     7
 48
0.05
100
AcDbLine
 10
624.0
 20
909.5
 30
0.0
 11
624.0
 21
907.5
 31
0.0
210
0.0
220
0.0
230
1.0
  0
LINE
  5
61
100
AcDbEntity
  8
0
 62
     7
100
AcDbLine
 10
578.0
 20
909.5
 30
0.0
 11
624.0
 21
909.5
 31
0.0
210
0.0
220
0.0
230
1.0
  0
LINE
  5
62
100
AcDbEntity
  8
0
 62
     7
 48
0.05
100
AcDbLine
 10
576.0
 20
909.5
 30
0.0
 11
578.0
 21
909.5
 31
0.0
210
0.0
220
0.0
230
1.0
  0
LINE
  5
63
100
AcDbEntity
  8
0
 62
     7
100
AcDbLine
 10
578.0
 20
907.5
 30
0.0
 11
624.0
 21
907.5
 31
0.0
210
0.0
220
0.0
230
1.0
  0
LINE
  5
64
100
AcDbEntity
  8
0
 62
     7
 48
0.05
100
AcDbLine
 10
576.0
 20
907.5
 30
0.0
 11
578.0
 21
907.5
 31
0.0
210
0.0
220
0.0
230
1.0
  0
LINE
  5
65
100
AcDbEntity
  8
0
 62
     7
 48
0.05
100
AcDbLine
 10
578.0
 20
909.5
 30
0.0
 11
578.0
 21
907.5
 31
0.0
210
0.0
220
0.0
230
1.0
  0
LINE
  5
66
100
AcDbEntity
  8
0
 62
     7
 48
0.05
100
AcDbLine
 10
576.0
 20
909.5
 30
0.0
 11
576.0
 21
907.5
 31
0.0
210
0.0
220
0.0
230
1.0
  0
LINE
  5
67
100
AcDbEntity
  8
0
 62
     7
 48
0.49375
100
AcDbLine
 10
578.0
 20
937.5
 30
0.0
 11
597.75
 21
937.5
 31
0.0
210
0.0
220
0.0
230
1.0
  0
LINE
  5
68
100
AcDbEntity
  8
0
 62
     7
100
AcDbLine
 10
576.0
 20
911.5
 30
0.0
 11
576.0
 21
935.5
 31
0.0
210
0.0
220
0.0
230
1.0
  0
ARC
  5
69
100
AcDbEntity
  8
0
 62
     7
100
AcDbCircle
 10
578.0
 20
935.5
 30
0.0
 40
2.0
210
0.0
220
0.0
230
1.0
100
AcDbArc
 50
90.000003
 51
180.000005
  0
LINE
  5
6A
100
AcDbEntity
  8
0
 62
     7
 48
0.49375
100
AcDbLine
 10
604.25
 20
937.5
 30
0.0
 11
624.0
 21
937.5
 31
0.0
210
0.0
220
0.0
230
1.0
  0
LINE
  5
6B
100
AcDbEntity
  8
0
 62
     7
100
AcDbLine
 10
626.0
 20
911.5
 30
0.0
 11
626.0
 21
935.5
 31
0.0
210
0.0
220
0.0
230
1.0
  0
ARC
  5
6C
100
AcDbEntity
  8
0
 62
     7
100
AcDbCircle
 10
624.0
 20
935.5
 30
0.0
 40
2.0
210
0.0
220
0.0
230
1.0
100
AcDbArc
 50
0.0
 51
90.000003
  0
LINE
  5
6D
100
AcDbEntity
  8
0
 62
     7
 48
0.025
100
AcDbLine
 10
626.0
 20
906.5
 30
0.0
 11
626.0
 21
907.5
 31
0.0
210
0.0
220
0.0
230
1.0
  0
LINE
  5
6E
100
AcDbEntity
  8
0
 62
     7
 48
0.025
100
AcDbLine
 10
576.0
 20
906.5
 30
0.0
 11
576.0
 21
907.5
 31
0.0
210
0.0
220
0.0
230
1.0
  0
LINE
  5
6F
100
AcDbEntity
  8
0
 62
     7
100
AcDbLine
 10
626.0
 20
906.5
 30
0.0
 11
576.0
 21
906.5
 31
0.0
210
0.0
220
0.0
230
1.0
  0
LINE
  5
70
100
AcDbEntity
  8
0
 62
     7
100
AcDbLine
 10
626.0
 20
907.5
 30
0.0
 11
576.0
 21
907.5
 31
0.0
210
0.0
220
0.0
230
1.0
  0
LINE
  5
71
100
AcDbEntity
  8
0
 62
     7
 48
0.025
100
AcDbLine
 10
626.0
 20
-66.500008
 30
0.0
 11
626.0
 21
-65.500008
 31
0.0
210
0.0
220
0.0
230
1.0
  0
LINE
  5
72
100
AcDbEntity
  8
0
 62
     7
 48
0.025
100
AcDbLine
 10
576.0
 20
-66.500008
 30
0.0
 11
576.0
 21
-65.500008
 31
0.0
210
0.0
220
0.0
230
1.0
  0
LINE
  5
73
100
AcDbEntity
  8
0
 62
     7
100
AcDbLine
 10
626.0
 20
-66.500008
 30
0.0
 11
576.0
 21
-66.500008
 31
0.0
210
0.0
220
0.0
230
1.0
  0
LINE
  5
74
100
AcDbEntity
  8
0
 62
     7
100
AcDbLine
 10
626.0
 20
-65.500008
 30
0.0
 11
576.0
 21
-65.500008
 31
0.0
210
0.0
220
0.0
230
1.0
  0
LINE
  5
75
100
AcDbEntity
  8
0
 62
     7
100
AcDbLine
 10
453.889404
 20
119.499992
 30
0.0
 11
493.889404
 21
119.499992
 31
0.0
210
0.0
220
0.0
230
1.0
  0
LINE
  5
76
100
AcDbEntity
  8
0
 62
     7
100
AcDbLine
 10
453.889404
 20
4.499992
 30
0.0
 11
453.889404
 21
119.499992
 31
0.0
210
0.0
220
0.0
230
1.0
  0
LINE
  5
77
100
AcDbEntity
  8
0
 62
     7
100
AcDbLine
 10
493.889404
 20
4.499992
 30
0.0
 11
453.889404
 21
4.499992
 31
0.0
210
0.0
220
0.0
230
1.0
  0
LINE
  5
78
100
AcDbEntity
  8
0
 62
     7
100
AcDbLine
 10
493.889404
 20
119.499992
 30
0.0
 11
493.889404
 21
4.499992
 31
0.0
210
0.0
220
0.0
230
1.0
  0
CIRCLE
  5
79
100
AcDbEntity
  8
0
 62
     7
100
AcDbCircle
 10
458.839417
 20
113.949989
 30
0.0
 40
2.25
210
0.0
220
0.0
230
1.0
  0
CIRCLE
  5
7A
100
AcDbEntity
  8
0
 62
     7
100
AcDbCircle
 10
488.939392
 20
113.949989
 30
0.0
 40
2.25
210
0.0
220
0.0
230
1.0
  0
CIRCLE
  5
7B
100
AcDbEntity
  8
0
 62
     7
100
AcDbCircle
 10
488.939392
 20
61.999992
 30
0.0
 40
2.25
210
0.0
220
0.0
230
1.0
  0
CIRCLE
  5
7C
100
AcDbEntity
  8
0
 62
     7
100
AcDbCircle
 10
458.839417
 20
61.999992
 30
0.0
 40
2.25
210
0.0
220
0.0
230
1.0
  0
CIRCLE
  5
7D
100
AcDbEntity
  8
0
 62
     7
100
AcDbCircle
 10
488.939392
 20
10.049995
 30
0.0
 40
2.25
210
0.0
220
0.0
230
1.0
  0
CIRCLE
  5
7E
100
AcDbEntity
  8
0
 62
     7
100
AcDbCircle
 10
458.839417
 20
10.049995
 30
0.0
 40
2.25
210
0.0
220
0.0
230
1.0
  0
CIRCLE
  5
7F
100
AcDbEntity
  8
0
 62
     7
100
AcDbCircle
 10
473.889404
 20
44.499992
 30
0.0
 40
7.5
210
0.0
220
0.0
230
1.0
  0
CIRCLE
  5
80
100
AcDbEntity
  8
0
 62
     7
100
AcDbCircle
 10
473.889404
 20
19.499992
 30
0.0
 40
7.5
210
0.0
220
0.0
230
1.0
  0
LINE
  5
81
100
AcDbEntity
  8
0
 62
     7
 48
0.297336
100
AcDbLine
 10
467.942688
 20
9.199989
 30
0.0
 11
479.836121
 21
9.199989
 31
0.0
210
0.0
220
0.0
230
1.0
  0
LINE
  5
82
100
AcDbEntity
  8
0
 62
     7
 48
0.297335
100
AcDbLine
 10
461.996002
 20
19.499992
 30
0.0
 11
467.942688
 21
9.199989
 31
0.0
210
0.0
220
0.0
230
1.0
  0
LINE
  5
83
100
AcDbEntity
  8
0
 62
     7
 48
0.297336
100
AcDbLine
 10
479.836121
 20
9.199989
 30
0.0
 11
485.782837
 21
19.499992
 31
0.0
210
0.0
220
0.0
230
1.0
  0
LINE
  5
84
100
AcDbEntity
  8
0
 62
     7
 48
0.297335
100
AcDbLine
 10
467.942688
 20
29.799995
 30
0.0
 11
461.996002
 21
19.499992
 31
0.0
210
0.0
220
0.0
230
1.0
  0
LINE
  5
85
100
AcDbEntity
  8
0
 62
     7
 48
0.297336
100
AcDbLine
 10
485.782837
 20
19.499992
 30
0.0
 11
479.836121
 21
29.799995
 31
0.0
210
0.0
220
0.0
230
1.0
  0
LINE
  5
86
100
AcDbEntity
  8
0
 62
     7
 48
0.297336
100
AcDbLine
 10
479.836121
 20
29.799995
 30
0.0
 11
467.942688
 21
29.799995
 31
0.0
210
0.0
220
0.0
230
1.0
  0
LINE
  5
87
100
AcDbEntity
  8
0
 62
     7
 48
0.297336
100
AcDbLine
 10
467.942688
 20
34.199989
 30
0.0
 11
479.836121
 21
34.199989
 31
0.0
210
0.0
220
0.0
230
1.0
  0
LINE
  5
88
100
AcDbEntity
  8
0
 62
     7
 48
0.297335
100
AcDbLine
 10
461.996002
 20
44.499992
 30
0.0
 11
467.942688
 21
34.199989
 31
0.0
210
0.0
220
0.0
230
1.0
  0
LINE
  5
89
100
AcDbEntity
  8
0
 62
     7
 48
0.297336
100
AcDbLine
 10
479.836121
 20
34.199989
 30
0.0
 11
485.782837
 21
44.499992
 31
0.0
210
0.0
220
0.0
230
1.0
  0
LINE
  5
8A
100
AcDbEntity
  8
0
 62
     7
 48
0.297335
100
AcDbLine
 10
467.942688
 20
54.799995
 30
0.0
 11
461.996002
 21
44.499992
 31
0.0
210
0.0
220
0.0
230
1.0
  0
LINE
  5
8B
100
AcDbEntity
  8
0
 62
     7
 48
0.297336
100
AcDbLine
 10
485.782837
 20
44.499992
 30
0.0
 11
479.836121
 21
54.799995
 31
0.0
210
0.0
220
0.0
230
1.0
  0
LINE
  5
8C
100
AcDbEntity
  8
0
 62
     7
 48
0.297336
100
AcDbLine
 10
479.836121
 20
54.799995
 30
0.0
 11
467.942688
 21
54.799995
 31
0.0
210
0.0
220
0.0
230
1.0
  0
CIRCLE
  5
8D
100
AcDbEntity
  8
0
 62
     7
100
AcDbCircle
 10
473.889404
 20
69.499992
 30
0.0
 40
5.9
210
0.0
220
0.0
230
1.0
  0
CIRCLE
  5
8E
100
AcDbEntity
  8
0
 62
     7
100
AcDbCircle
 10
473.889404
 20
69.499992
 30
0.0
 40
7.0
210
0.0
220
0.0
230
1.0
  0
LINE
  5
8F
100
AcDbEntity
  8
0
 62
     7
 48
0.015991
100
AcDbLine
 10
477.137329
 20
74.425545
 30
0.0
 11
476.817505
 21
73.87162
 31
0.0
210
0.0
220
0.0
230
1.0
  0
LINE
  5
90
100
AcDbEntity
  8
0
 62
     7
 48
0.00625
100
AcDbLine
 10
476.817505
 20
73.87162
 30
0.0
 11
477.034027
 21
73.74662
 31
0.0
210
0.0
220
0.0
230
1.0
  0
LINE
  5
91
100
AcDbEntity
  8
0
 62
     7
 48
0.015485
100
AcDbLine
 10
477.343719
 20
74.283058
 30
0.0
 11
477.034027
 21
73.74662
 31
0.0
210
0.0
220
0.0
230
1.0
  0
LINE
  5
92
100
AcDbEntity
  8
0
 62
     7
 48
0.015485
100
AcDbLine
 10
475.994781
 20
74.346626
 30
0.0
 11
476.304504
 21
74.883049
 31
0.0
210
0.0
220
0.0
230
1.0
  0
LINE
  5
93
100
AcDbEntity
  8
0
 62
     7
 48
0.00625
100
AcDbLine
 10
476.211304
 20
74.221626
 30
0.0
 11
475.994781
 21
74.346626
 31
0.0
210
0.0
220
0.0
230
1.0
  0
LINE
  5
94
100
AcDbEntity
  8
0
 62
     7
 48
0.01599
100
AcDbLine
 10
476.211304
 20
74.221626
 30
0.0
 11
476.531097
 21
74.775551
 31
0.0
210
0.0
220
0.0
230
1.0
  0
ARC
  5
95
100
AcDbEntity
  8
0
 62
     7
100
AcDbCircle
 10
476.514404
 20
74.046623
 30
0.0
 40
0.35
210
0.0
220
0.0
230
1.0
100
AcDbArc
 50
150.000025
 51
329.999999
  0
ARC
  5
96
100
AcDbEntity
  8
0
 62
     7
100
AcDbCircle
 10
476.514404
 20
74.046623
 30
0.0
 40
0.6
210
0.0
220
0.0
230
1.0
100
AcDbArc
 50
149.999997
 51
329.999999
  0
CIRCLE
  5
97
100
AcDbEntity
  8
0
 62
     7
100
AcDbCircle
 10
475.689392
 20
72.617683
 30
0.0
 40
0.4
210
0.0
220
0.0
230
1.0
  0
CIRCLE
  5
98
100
AcDbEntity
  8
0
 62
     7
100
AcDbCircle
 10
473.889404
 20
69.499992
 30
0.0
 40
0.4
210
0.0
220
0.0
230
1.0
  0
CIRCLE
  5
99
100
AcDbEntity
  8
0
 62
     7
100
AcDbCircle
 10
477.449188
 20
70.036537
 30
0.0
 40
0.4
210
0.0
220
0.0
230
1.0
  0
CIRCLE
  5
9A
100
AcDbEntity
  8
0
 62
     7
100
AcDbCircle
 10
476.528381
 20
67.051369
 30
0.0
 40
0.4
210
0.0
220
0.0
230
1.0
  0
CIRCLE
  5
9B
100
AcDbEntity
  8
0
 62
     7
100
AcDbCircle
 10
473.620361
 20
65.910057
 30
0.0
 40
0.4
210
0.0
220
0.0
230
1.0
  0
CIRCLE
  5
9C
100
AcDbEntity
  8
0
 62
     7
100
AcDbCircle
 10
470.914948
 20
67.472038
 30
0.0
 40
0.4
210
0.0
220
0.0
230
1.0
  0
CIRCLE
  5
9D
100
AcDbEntity
  8
0
 62
     7
100
AcDbCircle
 10
470.449341
 20
70.561104
 30
0.0
 40
0.4
210
0.0
220
0.0
230
1.0
  0
CIRCLE
  5
9E
100
AcDbEntity
  8
0
 62
     7
100
AcDbCircle
 10
472.574188
 20
72.851143
 30
0.0
 40
0.4
210
0.0
220
0.0
230
1.0
  0
LINE
  5
9F
100
AcDbEntity
  8
0
 62
     7
 48
0.274241
100
AcDbLine
 10
479.374237
 20
59.999992
 30
0.0
 11
484.85907
 21
69.499992
 31
0.0
210
0.0
220
0.0
230
1.0
  0
LINE
  5
A0
100
AcDbEntity
  8
0
 62
     7
 48
0.274241
100
AcDbLine
 10
484.85907
 20
69.499992
 30
0.0
 11
479.374237
 21
78.999992
 31
0.0
210
0.0
220
0.0
230
1.0
  0
LINE
  5
A1
100
AcDbEntity
  8
0
 62
     7
 48
0.274242
100
AcDbLine
 10
479.374237
 20
78.999992
 30
0.0
 11
468.404572
 21
78.999992
 31
0.0
210
0.0
220
0.0
230
1.0
  0
LINE
  5
A2
100
AcDbEntity
  8
0
 62
     7
 48
0.274241
100
AcDbLine
 10
468.404572
 20
78.999992
 30
0.0
 11
462.919739
 21
69.499992
 31
0.0
210
0.0
220
0.0
230
1.0
  0
LINE
  5
A3
100
AcDbEntity
  8
0
 62
     7
 48
0.274241
100
AcDbLine
 10
462.919739
 20
69.499992
 30
0.0
 11
468.404572
 21
59.999992
 31
0.0
210
0.0
220
0.0
230
1.0
  0
LINE
  5
A4
100
AcDbEntity
  8
0
 62
     7
 48
0.274242
100
AcDbLine
 10
468.404572
 20
59.999992
 30
0.0
 11
479.374237
 21
59.999992
 31
0.0
210
0.0
220
0.0
230
1.0
  0
CIRCLE
  5
A5
100
AcDbEntity
  8
0
 62
     7
100
AcDbCircle
 10
475.689392
 20
72.617683
 30
0.0
 40
0.15
210
0.0
220
0.0
230
1.0
  0
CIRCLE
  5
A6
100
AcDbEntity
  8
0
 62
     7
100
AcDbCircle
 10
473.889404
 20
69.499992
 30
0.0
 40
0.15
210
0.0
220
0.0
230
1.0
  0
CIRCLE
  5
A7
100
AcDbEntity
  8
0
 62
     7
100
AcDbCircle
 10
477.449188
 20
70.036537
 30
0.0
 40
0.15
210
0.0
220
0.0
230
1.0
  0
CIRCLE
  5
A8
100
AcDbEntity
  8
0
 62
     7
100
AcDbCircle
 10
476.528381
 20
67.051369
 30
0.0
 40
0.15
210
0.0
220
0.0
230
1.0
  0
CIRCLE
  5
A9
100
AcDbEntity
  8
0
 62
     7
100
AcDbCircle
 10
473.620361
 20
65.910057
 30
0.0
 40
0.15
210
0.0
220
0.0
230
1.0
  0
CIRCLE
  5
AA
100
AcDbEntity
  8
0
 62
     7
100
AcDbCircle
 10
470.914948
 20
67.472038
 30
0.0
 40
0.15
210
0.0
220
0.0
230
1.0
  0
CIRCLE
  5
AB
100
AcDbEntity
  8
0
 62
     7
100
AcDbCircle
 10
470.449341
 20
70.561104
 30
0.0
 40
0.15
210
0.0
220
0.0
230
1.0
  0
CIRCLE
  5
AC
100
AcDbEntity
  8
0
 62
     7
100
AcDbCircle
 10
472.574188
 20
72.851143
 30
0.0
 40
0.15
210
0.0
220
0.0
230
1.0
  0
LINE
  5
AD
100
AcDbEntity
  8
0
 62
     7
100
AcDbLine
 10
448.889404
 20
-65.500008
 30
0.0
 11
448.889404
 21
906.5
 31
0.0
210
0.0
220
0.0
230
1.0
  0
LINE
  5
AE
100
AcDbEntity
  8
0
 62
     7
100
AcDbLine
 10
448.889404
 20
-65.500008
 30
0.0
 11
498.889404
 21
-65.500008
 31
0.0
210
0.0
220
0.0
230
1.0
  0
LINE
  5
AF
100
AcDbEntity
  8
0
 62
     7
100
AcDbLine
 10
498.889404
 20
-65.500008
 30
0.0
 11
498.889404
 21
906.5
 31
0.0
210
0.0
220
0.0
230
1.0
  0
LINE
  5
B0
100
AcDbEntity
  8
0
 62
     7
100
AcDbLine
 10
448.889404
 20
906.5
 30
0.0
 11
498.889404
 21
906.5
 31
0.0
210
0.0
220
0.0
230
1.0
  0
ARC
  5
B1
100
AcDbEntity
  8
0
 62
     7
100
AcDbCircle
 10
445.889404
 20
-70.500008
 30
0.0
 40
4.0
210
0.0
220
0.0
230
1.0
100
AcDbArc
 50
90.000003
 51
180.000005
  0
ARC
  5
B2
100
AcDbEntity
  8
0
 62
     7
100
AcDbCircle
 10
445.889404
 20
-70.500008
 30
0.0
 40
2.0
210
0.0
220
0.0
230
1.0
100
AcDbArc
 50
90.000003
 51
180.000005
  0
LINE
  5
B3
100
AcDbEntity
  8
0
 62
     7
 48
0.05
100
AcDbLine
 10
496.889404
 20
-68.500008
 30
0.0
 11
496.889404
 21
-66.500008
 31
0.0
210
0.0
220
0.0
230
1.0
  0
LINE
  5
B4
100
AcDbEntity
  8
0
 62
     7
 48
0.05
100
AcDbLine
 10
498.889404
 20
-68.500008
 30
0.0
 11
496.889404
 21
-68.500008
 31
0.0
210
0.0
220
0.0
230
1.0
  0
LINE
  5
B5
100
AcDbEntity
  8
0
 62
     7
 48
0.05
100
AcDbLine
 10
498.889404
 20
-68.500008
 30
0.0
 11
498.889404
 21
-66.500008
 31
0.0
210
0.0
220
0.0
230
1.0
  0
LINE
  5
B6
100
AcDbEntity
  8
0
 62
     7
100
AcDbLine
 10
496.889404
 20
-68.500008
 30
0.0
 11
445.889404
 21
-68.500008
 31
0.0
210
0.0
220
0.0
230
1.0
  0
LINE
  5
B7
100
AcDbEntity
  8
0
 62
     7
100
AcDbLine
 10
496.889404
 20
-66.500008
 30
0.0
 11
445.889404
 21
-66.500008
 31
0.0
210
0.0
220
0.0
230
1.0
  0
LINE
  5
B8
100
AcDbEntity
  8
0
 62
     7
 48
0.05
100
AcDbLine
 10
441.889404
 20
-96.500008
 30
0.0
 11
443.889404
 21
-96.500008
 31
0.0
210
0.0
220
0.0
230
1.0
  0
LINE
  5
B9
100
AcDbEntity
  8
0
 62
     7
100
AcDbLine
 10
443.889404
 20
-70.500008
 30
0.0
 11
443.889404
 21
-94.500008
 31
0.0
210
0.0
220
0.0
230
1.0
  0
LINE
  5
BA
100
AcDbEntity
  8
0
 62
     7
100
AcDbLine
 10
441.889404
 20
-70.500008
 30
0.0
 11
441.889404
 21
-94.500008
 31
0.0
210
0.0
220
0.0
230
1.0
  0
LINE
  5
BB
100
AcDbEntity
  8
0
 62
     7
 48
0.05
100
AcDbLine
 10
441.889404
 20
-94.500008
 30
0.0
 11
443.889404
 21
-94.500008
 31
0.0
210
0.0
220
0.0
230
1.0
  0
LINE
  5
BC
100
AcDbEntity
  8
0
 62
     7
 48
0.05
100
AcDbLine
 10
441.889404
 20
-94.500008
 30
0.0
 11
441.889404
 21
-96.500008
 31
0.0
210
0.0
220
0.0
230
1.0
  0
LINE
  5
BD
100
AcDbEntity
  8
0
 62
     7
 48
0.05
100
AcDbLine
 10
443.889404
 20
-94.500008
 30
0.0
 11
443.889404
 21
-96.500008
 31
0.0
210
0.0
220
0.0
230
1.0
  0
ARC
  5
BE
100
AcDbEntity
  8
0
 62
     7
100
AcDbCircle
 10
445.889404
 20
911.5
 30
0.0
 40
4.0
210
0.0
220
0.0
230
1.0
100
AcDbArc
 50
180.000005
 51
269.999997
  0
ARC
  5
BF
100
AcDbEntity
  8
0
 62
     7
100
AcDbCircle
 10
445.889404
 20
911.5
 30
0.0
 40
2.0
210
0.0
220
0.0
230
1.0
100
AcDbArc
 50
180.000005
 51
269.999997
  0
LINE
  5
C0
100
AcDbEntity
  8
0
 62
     7
100
AcDbLine
 10
496.889404
 20
909.5
 30
0.0
 11
445.889404
 21
909.5
 31
0.0
210
0.0
220
0.0
230
1.0
  0
LINE
  5
C1
100
AcDbEntity
  8
0
 62
     7
 48
0.05
100
AcDbLine
 10
496.889404
 20
909.5
 30
0.0
 11
498.889404
 21
909.5
 31
0.0
210
0.0
220
0.0
230
1.0
  0
LINE
  5
C2
100
AcDbEntity
  8
0
 62
     7
100
AcDbLine
 10
496.889404
 20
907.5
 30
0.0
 11
445.889404
 21
907.5
 31
0.0
210
0.0
220
0.0
230
1.0
  0
LINE
  5
C3
100
AcDbEntity
  8
0
 62
     7
 48
0.05
100
AcDbLine
 10
496.889404
 20
907.5
 30
0.0
 11
498.889404
 21
907.5
 31
0.0
210
0.0
220
0.0
230
1.0
  0
LINE
  5
C4
100
AcDbEntity
  8
0
 62
     7
 48
0.05
100
AcDbLine
 10
498.889404
 20
909.5
 30
0.0
 11
498.889404
 21
907.5
 31
0.0
210
0.0
220
0.0
230
1.0
  0
LINE
  5
C5
100
AcDbEntity
  8
0
 62
     7
 48
0.05
100
AcDbLine
 10
496.889404
 20
909.5
 30
0.0
 11
496.889404
 21
907.5
 31
0.0
210
0.0
220
0.0
230
1.0
  0
LINE
  5
C6
100
AcDbEntity
  8
0
 62
     7
 48
0.05
100
AcDbLine
 10
441.889404
 20
937.5
 30
0.0
 11
443.889404
 21
937.5
 31
0.0
210
0.0
220
0.0
230
1.0
  0
LINE
  5
C7
100
AcDbEntity
  8
0
 62
     7
100
AcDbLine
 10
443.889404
 20
911.5
 30
0.0
 11
443.889404
 21
935.5
 31
0.0
210
0.0
220
0.0
230
1.0
  0
LINE
  5
C8
100
AcDbEntity
  8
0
 62
     7
100
AcDbLine
 10
441.889404
 20
911.5
 30
0.0
 11
441.889404
 21
935.5
 31
0.0
210
0.0
220
0.0
230
1.0
  0
LINE
  5
C9
100
AcDbEntity
  8
0
 62
     7
 48
0.05
100
AcDbLine
 10
441.889404
 20
935.5
 30
0.0
 11
443.889404
 21
935.5
 31
0.0
210
0.0
220
0.0
230
1.0
  0
LINE
  5
CA
100
AcDbEntity
  8
0
 62
     7
 48
0.05
100
AcDbLine
 10
443.889404
 20
937.5
 30
0.0
 11
443.889404
 21
935.5
 31
0.0
210
0.0
220
0.0
230
1.0
  0
LINE
  5
CB
100
AcDbEntity
  8
0
 62
     7
 48
0.05
100
AcDbLine
 10
441.889404
 20
937.5
 30
0.0
 11
441.889404
 21
935.5
 31
0.0
210
0.0
220
0.0
230
1.0
  0
LINE
  5
CC
100
AcDbEntity
  8
0
 62
     7
 48
0.025
100
AcDbLine
 10
448.889404
 20
906.5
 30
0.0
 11
448.889404
 21
907.5
 31
0.0
210
0.0
220
0.0
230
1.0
  0
LINE
  5
CD
100
AcDbEntity
  8
0
 62
     7
100
AcDbLine
 10
448.889404
 20
906.5
 30
0.0
 11
498.889404
 21
906.5
 31
0.0
210
0.0
220
0.0
230
1.0
  0
LINE
  5
CE
100
AcDbEntity
  8
0
 62
     7
 48
0.025
100
AcDbLine
 10
498.889404
 20
906.5
 30
0.0
 11
498.889404
 21
907.5
 31
0.0
210
0.0
220
0.0
230
1.0
  0
LINE
  5
CF
100
AcDbEntity
  8
0
 62
     7
100
AcDbLine
 10
448.889404
 20
907.5
 30
0.0
 11
498.889404
 21
907.5
 31
0.0
210
0.0
220
0.0
230
1.0
  0
LINE
  5
D0
100
AcDbEntity
  8
0
 62
     7
 48
0.025
100
AcDbLine
 10
448.889404
 20
-66.500008
 30
0.0
 11
448.889404
 21
-65.500008
 31
0.0
210
0.0
220
0.0
230
1.0
  0
LINE
  5
D1
100
AcDbEntity
  8
0
 62
     7
100
AcDbLine
 10
448.889404
 20
-66.500008
 30
0.0
 11
498.889404
 21
-66.500008
 31
0.0
210
0.0
220
0.0
230
1.0
  0
LINE
  5
D2
100
AcDbEntity
  8
0
 62
     7
 48
0.025
100
AcDbLine
 10
498.889404
 20
-66.500008
 30
0.0
 11
498.889404
 21
-65.500008
 31
0.0
210
0.0
220
0.0
230
1.0
  0
LINE
  5
D3
100
AcDbEntity
  8
0
 62
     7
100
AcDbLine
 10
448.889404
 20
-65.500008
 30
0.0
 11
498.889404
 21
-65.500008
 31
0.0
210
0.0
220
0.0
230
1.0
  0
LINE
  5
D4
100
AcDbEntity
  8
0
 62
     7
100
AcDbLine
 10
574.5
 20
-144.397781
 30
0.0
 11
574.5
 21
-184.397781
 31
0.0
210
0.0
220
0.0
230
1.0
  0
LINE
  5
D5
100
AcDbEntity
  8
0
 62
     7
 48
0.2075
100
AcDbLine
 10
571.299988
 20
-156.897781
 30
0.0
 11
563.0
 21
-156.897781
 31
0.0
210
0.0
220
0.0
230
1.0
  0
LINE
  5
D6
100
AcDbEntity
  8
0
 62
     7
 48
0.375
100
AcDbLine
 10
563.0
 20
-156.897781
 30
0.0
 11
563.0
 21
-171.897781
 31
0.0
210
0.0
220
0.0
230
1.0
  0
LINE
  5
D7
100
AcDbEntity
  8
0
 62
     7
 48
0.2075
100
AcDbLine
 10
571.299988
 20
-171.897781
 30
0.0
 11
563.0
 21
-171.897781
 31
0.0
210
0.0
220
0.0
230
1.0
  0
LINE
  5
D8
100
AcDbEntity
  8
0
 62
     7
 48
0.2075
100
AcDbLine
 10
571.299988
 20
-156.897781
 30
0.0
 11
563.0
 21
-156.897781
 31
0.0
210
0.0
220
0.0
230
1.0
  0
LINE
  5
D9
100
AcDbEntity
  8
0
 62
     7
 48
0.08
100
AcDbLine
 10
574.5
 20
-170.344482
 30
0.0
 11
571.299988
 21
-170.344482
 31
0.0
210
0.0
220
0.0
230
1.0
  0
LINE
  5
DA
100
AcDbEntity
  8
0
 62
     7
 48
0.08
100
AcDbLine
 10
574.5
 20
-158.45108
 30
0.0
 11
571.299988
 21
-158.45108
 31
0.0
210
0.0
220
0.0
230
1.0
  0
LINE
  5
DB
100
AcDbEntity
  8
0
 62
     7
 48
0.297335
100
AcDbLine
 10
571.299988
 20
-170.344482
 30
0.0
 11
571.299988
 21
-158.45108
 31
0.0
210
0.0
220
0.0
230
1.0
  0
LINE
  5
DC
100
AcDbEntity
  8
0
 62
     7
 48
0.08
100
AcDbLine
 10
574.5
 20
-176.291199
 30
0.0
 11
571.299988
 21
-176.291199
 31
0.0
210
0.0
220
0.0
230
1.0
  0
LINE
  5
DD
100
AcDbEntity
  8
0
 62
     7
 48
0.148668
100
AcDbLine
 10
571.299988
 20
-176.291199
 30
0.0
 11
571.299988
 21
-170.344482
 31
0.0
210
0.0
220
0.0
230
1.0
  0
LINE
  5
DE
100
AcDbEntity
  8
0
 62
     7
 48
0.08
100
AcDbLine
 10
574.5
 20
-152.504364
 30
0.0
 11
571.299988
 21
-152.504364
 31
0.0
210
0.0
220
0.0
230
1.0
  0
LINE
  5
DF
100
AcDbEntity
  8
0
 62
     7
 48
0.148668
100
AcDbLine
 10
571.299988
 20
-158.45108
 30
0.0
 11
571.299988
 21
-152.504364
 31
0.0
210
0.0
220
0.0
230
1.0
  0
LINE
  5
E0
100
AcDbEntity
  8
0
 62
     7
 48
0.08
100
AcDbLine
 10
574.5
 20
-152.504364
 30
0.0
 11
571.299988
 21
-152.504364
 31
0.0
210
0.0
220
0.0
230
1.0
  0
LINE
  5
E1
100
AcDbEntity
  8
0
 62
     7
 48
0.0375
100
AcDbLine
 10
576.0
 20
-144.397781
 30
0.0
 11
574.5
 21
-144.397781
 31
0.0
210
0.0
220
0.0
230
1.0
  0
LINE
  5
E2
100
AcDbEntity
  8
0
 62
     7
 48
0.0375
100
AcDbLine
 10
576.0
 20
-184.397781
 30
0.0
 11
574.5
 21
-184.397781
 31
0.0
210
0.0
220
0.0
230
1.0
  0
LINE
  5
E3
100
AcDbEntity
  8
0
 62
     7
 48
0.086742
100
AcDbLine
 10
570.5
 20
-156.897797
 30
0.0
 11
570.5
 21
-153.428131
 31
0.0
210
0.0
220
0.0
230
1.0
  0
LINE
  5
E4
100
AcDbEntity
  8
0
 62
     7
 48
0.086741
100
AcDbLine
 10
570.5
 20
-175.367432
 30
0.0
 11
570.5
 21
-171.897797
 31
0.0
210
0.0
220
0.0
230
1.0
  0
LINE
  5
E5
100
AcDbEntity
  8
0
 62
     7
 48
0.020001
100
AcDbLine
 10
571.300049
 20
-153.428131
 30
0.0
 11
570.5
 21
-153.428131
 31
0.0
210
0.0
220
0.0
230
1.0
  0
LINE
  5
E6
100
AcDbEntity
  8
0
 62
     7
 48
0.020001
100
AcDbLine
 10
571.300049
 20
-175.367432
 30
0.0
 11
570.5
 21
-175.367432
 31
0.0
210
0.0
220
0.0
230
1.0
  0
LINE
  5
E7
100
AcDbEntity
  8
0
 62
     7
 48
0.05
100
AcDbLine
 10
576.0
 20
-141.397781
 30
0.0
 11
576.0
 21
-139.397781
 31
0.0
210
0.0
220
0.0
230
1.0
  0
LINE
  5
E8
100
AcDbEntity
  8
0
 62
     7
 48
0.05
100
AcDbLine
 10
576.0
 20
-139.397781
 30
0.0
 11
578.0
 21
-139.397781
 31
0.0
210
0.0
220
0.0
230
1.0
  0
LINE
  5
E9
100
AcDbEntity
  8
0
 62
     7
 48
0.05
100
AcDbLine
 10
624.0
 20
-139.397781
 30
0.0
 11
626.0
 21
-139.397781
 31
0.0
210
0.0
220
0.0
230
1.0
  0
CIRCLE
  5
EA
100
AcDbEntity
  8
0
 62
     7
100
AcDbCircle
 10
618.440002
 20
-164.397781
 30
0.0
 40
2.5
210
0.0
220
0.0
230
1.0
  0
LINE
  5
EB
100
AcDbEntity
  8
0
 62
     7
 48
0.05
100
AcDbLine
 10
604.25
 20
-194.397781
 30
0.0
 11
604.25
 21
-196.397781
 31
0.0
210
0.0
220
0.0
230
1.0
  0
LINE
  5
EC
100
AcDbEntity
  8
0
 62
     7
 48
0.05
100
AcDbLine
 10
597.75
 20
-194.397781
 30
0.0
 11
597.75
 21
-196.397781
 31
0.0
210
0.0
220
0.0
230
1.0
  0
LINE
  5
ED
100
AcDbEntity
  8
0
 62
     7
 48
0.1625
100
AcDbLine
 10
597.75
 20
-196.397781
 30
0.0
 11
604.25
 21
-196.397781
 31
0.0
210
0.0
220
0.0
230
1.0
  0
LINE
  5
EE
100
AcDbEntity
  8
0
 62
     7
 48
0.1625
100
AcDbLine
 10
604.25
 20
-194.397781
 30
0.0
 11
597.75
 21
-194.397781
 31
0.0
210
0.0
220
0.0
230
1.0
  0
CIRCLE
  5
EF
100
AcDbEntity
  8
0
 62
     7
100
AcDbCircle
 10
583.559998
 20
-164.397781
 30
0.0
 40
2.5
210
0.0
220
0.0
230
1.0
  0
LINE
  5
F0
100
AcDbEntity
  8
0
 62
     7
 48
0.05
100
AcDbLine
 10
626.0
 20
-192.397781
 30
0.0
 11
626.0
 21
-194.397781
 31
0.0
210
0.0
220
0.0
230
1.0
  0
LINE
  5
F1
100
AcDbEntity
  8
0
 62
     7
 48
0.05
100
AcDbLine
 10
576.0
 20
-192.397781
 30
0.0
 11
576.0
 21
-194.397781
 31
0.0
210
0.0
220
0.0
230
1.0
  0
ARC
  5
F2
100
AcDbEntity
  8
0
 62
     7
100
AcDbCircle
 10
578.0
 20
-141.397781
 30
0.0
 40
2.0
210
0.0
220
0.0
230
1.0
100
AcDbArc
 50
90.000003
 51
180.000005
  0
LINE
  5
F3
100
AcDbEntity
  8
0
 62
     7
100
AcDbLine
 10
626.0
 20
-141.397781
 30
0.0
 11
626.0
 21
-192.397781
 31
0.0
210
0.0
220
0.0
230
1.0
  0
LINE
  5
F4
100
AcDbEntity
  8
0
 62
     7
100
AcDbLine
 10
576.0
 20
-141.397781
 30
0.0
 11
576.0
 21
-192.397781
 31
0.0
210
0.0
220
0.0
230
1.0
  0
LINE
  5
F5
100
AcDbEntity
  8
0
 62
     7
100
AcDbLine
 10
624.0
 20
-139.397781
 30
0.0
 11
578.0
 21
-139.397781
 31
0.0
210
0.0
220
0.0
230
1.0
  0
ARC
  5
F6
100
AcDbEntity
  8
0
 62
     7
100
AcDbCircle
 10
624.0
 20
-141.397781
 30
0.0
 40
2.0
210
0.0
220
0.0
230
1.0
100
AcDbArc
 50
0.0
 51
90.000003
  0
LINE
  5
F7
100
AcDbEntity
  8
0
 62
     7
 48
0.49375
100
AcDbLine
 10
624.0
 20
-194.397781
 30
0.0
 11
604.25
 21
-194.397781
 31
0.0
210
0.0
220
0.0
230
1.0
  0
LINE
  5
F8
100
AcDbEntity
  8
0
 62
     7
 48
0.49375
100
AcDbLine
 10
624.0
 20
-196.397781
 30
0.0
 11
604.25
 21
-196.397781
 31
0.0
210
0.0
220
0.0
230
1.0
  0
LINE
  5
F9
100
AcDbEntity
  8
0
 62
     7
 48
0.05
100
AcDbLine
 10
624.0
 20
-196.397781
 30
0.0
 11
624.0
 21
-194.397781
 31
0.0
210
0.0
220
0.0
230
1.0
  0
LINE
  5
FA
100
AcDbEntity
  8
0
 62
     7
 48
0.05
100
AcDbLine
 10
626.0
 20
-196.397781
 30
0.0
 11
626.0
 21
-194.397781
 31
0.0
210
0.0
220
0.0
230
1.0
  0
LINE
  5
FB
100
AcDbEntity
  8
0
 62
     7
 48
0.05
100
AcDbLine
 10
624.0
 20
-194.397781
 30
0.0
 11
626.0
 21
-194.397781
 31
0.0
210
0.0
220
0.0
230
1.0
  0
LINE
  5
FC
100
AcDbEntity
  8
0
 62
     7
 48
0.05
100
AcDbLine
 10
624.0
 20
-196.397781
 30
0.0
 11
626.0
 21
-196.397781
 31
0.0
210
0.0
220
0.0
230
1.0
  0
LINE
  5
FD
100
AcDbEntity
  8
0
 62
     7
 48
0.49375
100
AcDbLine
 10
597.75
 20
-196.397781
 30
0.0
 11
578.0
 21
-196.397781
 31
0.0
210
0.0
220
0.0
230
1.0
  0
LINE
  5
FE
100
AcDbEntity
  8
0
 62
     7
 48
0.49375
100
AcDbLine
 10
597.75
 20
-194.397781
 30
0.0
 11
578.0
 21
-194.397781
 31
0.0
210
0.0
220
0.0
230
1.0
  0
LINE
  5
FF
100
AcDbEntity
  8
0
 62
     7
 48
0.05
100
AcDbLine
 10
578.0
 20
-196.397781
 30
0.0
 11
578.0
 21
-194.397781
 31
0.0
210
0.0
220
0.0
230
1.0
  0
LINE
  5
100
100
AcDbEntity
  8
0
 62
     7
 48
0.05
100
AcDbLine
 10
576.0
 20
-196.397781
 30
0.0
 11
576.0
 21
-194.397781
 31
0.0
210
0.0
220
0.0
230
1.0
  0
LINE
  5
101
100
AcDbEntity
  8
0
 62
     7
 48
0.05
100
AcDbLine
 10
576.0
 20
-196.397781
 30
0.0
 11
578.0
 21
-196.397781
 31
0.0
210
0.0
220
0.0
230
1.0
  0
LINE
  5
102
100
AcDbEntity
  8
0
 62
     7
 48
0.05
100
AcDbLine
 10
576.0
 20
-194.397781
 30
0.0
 11
578.0
 21
-194.397781
 31
0.0
210
0.0
220
0.0
230
1.0
  0
LINE
  5
103
100
AcDbEntity
  8
0
 62
     7
 48
0.04994
100
AcDbLine
 10
626.0
 20
-139.397781
 30
0.0
 11
626.0
 21
-141.395386
 31
0.0
210
0.0
220
0.0
230
1.0
  0
LINE
  5
104
100
AcDbEntity
  8
0
 62
     7
100
AcDbLine
 10
576.0
 20
-189.397781
 30
0.0
 11
576.0
 21
-139.397781
 31
0.0
210
0.0
220
0.0
230
1.0
  0
LINE
  5
105
100
AcDbEntity
  8
0
 62
     7
100
AcDbLine
 10
626.0
 20
-139.397781
 30
0.0
 11
576.0
 21
-139.397781
 31
0.0
210
0.0
220
0.0
230
1.0
  0
LINE
  5
106
100
AcDbEntity
  8
0
 62
     7
100
AcDbLine
 10
714.2724
 20
-65.469315
 30
0.0
 11
714.2724
 21
906.530701
 31
0.0
210
0.0
220
0.0
230
1.0
  0
LINE
  5
107
100
AcDbEntity
  8
0
 62
     7
 48
0.0625
100
AcDbLine
 10
714.2724
 20
-65.469315
 30
0.0
 11
716.7724
 21
-65.469315
 31
0.0
210
0.0
220
0.0
230
1.0
  0
LINE
  5
108
100
AcDbEntity
  8
0
 62
     7
100
AcDbLine
 10
716.7724
 20
-65.469315
 30
0.0
 11
716.7724
 21
906.530701
 31
0.0
210
0.0
220
0.0
230
1.0
  0
LINE
  5
109
100
AcDbEntity
  8
0
 62
     7
 48
0.0625
100
AcDbLine
 10
714.2724
 20
906.530701
 30
0.0
 11
716.7724
 21
906.530701
 31
0.0
210
0.0
220
0.0
230
1.0
  0
LINE
  5
10A
100
AcDbEntity
  8
0
 62
     7
100
AcDbLine
 10
761.7724
 20
-65.469315
 30
0.0
 11
761.7724
 21
906.530701
 31
0.0
210
0.0
220
0.0
230
1.0
  0
LINE
  5
10B
100
AcDbEntity
  8
0
 62
     7
 48
0.0625
100
AcDbLine
 10
761.7724
 20
-65.469315
 30
0.0
 11
764.2724
 21
-65.469315
 31
0.0
210
0.0
220
0.0
230
1.0
  0
LINE
  5
10C
100
AcDbEntity
  8
0
 62
     7
100
AcDbLine
 10
764.2724
 20
-65.469315
 30
0.0
 11
764.2724
 21
906.530701
 31
0.0
210
0.0
220
0.0
230
1.0
  0
LINE
  5
10D
100
AcDbEntity
  8
0
 62
     7
 48
0.0625
100
AcDbLine
 10
761.7724
 20
906.530701
 30
0.0
 11
764.2724
 21
906.530701
 31
0.0
210
0.0
220
0.0
230
1.0
  0
LINE
  5
10E
100
AcDbEntity
  8
0
 62
     7
100
AcDbLine
 10
716.7724
 20
906.530701
 30
0.0
 11
761.7724
 21
906.530701
 31
0.0
210
0.0
220
0.0
230
1.0
  0
LINE
  5
10F
100
AcDbEntity
  8
0
 62
     7
100
AcDbLine
 10
716.7724
 20
-65.469315
 30
0.0
 11
716.7724
 21
906.530701
 31
0.0
210
0.0
220
0.0
230
1.0
  0
LINE
  5
110
100
AcDbEntity
  8
0
 62
     7
 48
0.36875
100
AcDbLine
 10
736.0224
 20
922.780701
 30
0.0
 11
736.0224
 21
937.530701
 31
0.0
210
0.0
220
0.0
230
1.0
  0
LINE
  5
111
100
AcDbEntity
  8
0
 62
     7
 48
0.36875
100
AcDbLine
 10
742.5224
 20
937.530701
 30
0.0
 11
742.5224
 21
922.780701
 31
0.0
210
0.0
220
0.0
230
1.0
  0
ARC
  5
112
100
AcDbEntity
  8
0
 62
     7
100
AcDbCircle
 10
739.2724
 20
922.780701
 30
0.0
 40
3.25
210
0.0
220
0.0
230
1.0
100
AcDbArc
 50
179.999995
 51
0.0
  0
LINE
  5
113
100
AcDbEntity
  8
0
 62
     7
 48
0.05
100
AcDbLine
 10
714.2724
 20
909.530701
 30
0.0
 11
714.2724
 21
911.530701
 31
0.0
210
0.0
220
0.0
230
1.0
  0
LINE
  5
114
100
AcDbEntity
  8
0
 62
     7
 48
0.05
100
AcDbLine
 10
764.2724
 20
909.530701
 30
0.0
 11
764.2724
 21
911.530701
 31
0.0
210
0.0
220
0.0
230
1.0
  0
LINE
  5
115
100
AcDbEntity
  8
0
 62
     7
 48
0.05
100
AcDbLine
 10
762.2724
 20
907.530701
 30
0.0
 11
764.2724
 21
907.530701
 31
0.0
210
0.0
220
0.0
230
1.0
  0
LINE
  5
116
100
AcDbEntity
  8
0
 62
     7
 48
0.05
100
AcDbLine
 10
764.2724
 20
909.530701
 30
0.0
 11
764.2724
 21
907.530701
 31
0.0
210
0.0
220
0.0
230
1.0
  0
LINE
  5
117
100
AcDbEntity
  8
0
 62
     7
 48
0.05
100
AcDbLine
 10
762.2724
 20
909.530701
 30
0.0
 11
764.2724
 21
909.530701
 31
0.0
210
0.0
220
0.0
230
1.0
  0
LINE
  5
118
100
AcDbEntity
  8
0
 62
     7
 48
0.05
100
AcDbLine
 10
762.2724
 20
909.530701
 30
0.0
 11
762.2724
 21
907.530701
 31
0.0
210
0.0
220
0.0
230
1.0
  0
LINE
  5
119
100
AcDbEntity
  8
0
 62
     7
100
AcDbLine
 10
716.2724
 20
909.530701
 30
0.0
 11
762.2724
 21
909.530701
 31
0.0
210
0.0
220
0.0
230
1.0
  0
LINE
  5
11A
100
AcDbEntity
  8
0
 62
     7
 48
0.05
100
AcDbLine
 10
714.2724
 20
909.530701
 30
0.0
 11
716.2724
 21
909.530701
 31
0.0
210
0.0
220
0.0
230
1.0
  0
LINE
  5
11B
100
AcDbEntity
  8
0
 62
     7
100
AcDbLine
 10
716.2724
 20
907.530701
 30
0.0
 11
762.2724
 21
907.530701
 31
0.0
210
0.0
220
0.0
230
1.0
  0
LINE
  5
11C
100
AcDbEntity
  8
0
 62
     7
 48
0.05
100
AcDbLine
 10
714.2724
 20
907.530701
 30
0.0
 11
716.2724
 21
907.530701
 31
0.0
210
0.0
220
0.0
230
1.0
  0
LINE
  5
11D
100
AcDbEntity
  8
0
 62
     7
 48
0.05
100
AcDbLine
 10
716.2724
 20
909.530701
 30
0.0
 11
716.2724
 21
907.530701
 31
0.0
210
0.0
220
0.0
230
1.0
  0
LINE
  5
11E
100
AcDbEntity
  8
0
 62
     7
 48
0.05
100
AcDbLine
 10
714.2724
 20
909.530701
 30
0.0
 11
714.2724
 21
907.530701
 31
0.0
210
0.0
220
0.0
230
1.0
  0
LINE
  5
11F
100
AcDbEntity
  8
0
 62
     7
 48
0.49375
100
AcDbLine
 10
716.2724
 20
937.530701
 30
0.0
 11
736.0224
 21
937.530701
 31
0.0
210
0.0
220
0.0
230
1.0
  0
LINE
  5
120
100
AcDbEntity
  8
0
 62
     7
100
AcDbLine
 10
714.2724
 20
911.530701
 30
0.0
 11
714.2724
 21
935.530701
 31
0.0
210
0.0
220
0.0
230
1.0
  0
ARC
  5
121
100
AcDbEntity
  8
0
 62
     7
100
AcDbCircle
 10
716.2724
 20
935.530701
 30
0.0
 40
2.0
210
0.0
220
0.0
230
1.0
100
AcDbArc
 50
90.000003
 51
180.000005
  0
LINE
  5
122
100
AcDbEntity
  8
0
 62
     7
 48
0.49375
100
AcDbLine
 10
742.5224
 20
937.530701
 30
0.0
 11
762.2724
 21
937.530701
 31
0.0
210
0.0
220
0.0
230
1.0
  0
LINE
  5
123
100
AcDbEntity
  8
0
 62
     7
100
AcDbLine
 10
764.2724
 20
911.530701
 30
0.0
 11
764.2724
 21
935.530701
 31
0.0
210
0.0
220
0.0
230
1.0
  0
ARC
  5
124
100
AcDbEntity
  8
0
 62
     7
100
AcDbCircle
 10
762.2724
 20
935.530701
 30
0.0
 40
2.0
210
0.0
220
0.0
230
1.0
100
AcDbArc
 50
0.0
 51
90.000003
  0
LINE
  5
125
100
AcDbEntity
  8
0
 62
     7
100
AcDbLine
 10
764.2724
 20
4.530685
 30
0.0
 11
764.2724
 21
119.530685
 31
0.0
210
0.0
220
0.0
230
1.0
  0
LINE
  5
126
100
AcDbEntity
  8
0
 62
     7
100
AcDbLine
 10
765.7724
 20
4.530685
 30
0.0
 11
765.7724
 21
119.530685
 31
0.0
210
0.0
220
0.0
230
1.0
  0
LINE
  5
127
100
AcDbEntity
  8
0
 62
     7
 48
0.1125
100
AcDbLine
 10
765.7724
 20
84.030685
 30
0.0
 11
770.2724
 21
84.030685
 31
0.0
210
0.0
220
0.0
230
1.0
  0
LINE
  5
128
100
AcDbEntity
  8
0
 62
     7
 48
0.1125
100
AcDbLine
 10
765.7724
 20
98.530685
 30
0.0
 11
770.2724
 21
98.530685
 31
0.0
210
0.0
220
0.0
230
1.0
  0
LINE
  5
129
100
AcDbEntity
  8
0
 62
     7
 48
0.3625
100
AcDbLine
 10
770.2724
 20
98.530685
 30
0.0
 11
770.2724
 21
84.030685
 31
0.0
210
0.0
220
0.0
230
1.0
  0
LINE
  5
12A
100
AcDbEntity
  8
0
 62
     7
 48
0.1125
100
AcDbLine
 10
765.7724
 20
113.030685
 30
0.0
 11
770.2724
 21
113.030685
 31
0.0
210
0.0
220
0.0
230
1.0
  0
LINE
  5
12B
100
AcDbEntity
  8
0
 62
     7
 48
0.3625
100
AcDbLine
 10
770.2724
 20
113.030685
 30
0.0
 11
770.2724
 21
98.530685
 31
0.0
210
0.0
220
0.0
230
1.0
  0
LINE
  5
12C
100
AcDbEntity
  8
0
 62
     7
 48
0.429375
100
AcDbLine
 10
775.2724
 20
87.080688
 30
0.0
 11
775.2724
 21
104.255692
 31
0.0
210
0.0
220
0.0
230
1.0
  0
LINE
  5
12D
100
AcDbEntity
  8
0
 62
     7
 48
0.143125
100
AcDbLine
 10
775.2724
 20
104.255692
 30
0.0
 11
775.2724
 21
109.980682
 31
0.0
210
0.0
220
0.0
230
1.0
  0
LINE
  5
12E
100
AcDbEntity
  8
0
 62
     7
 48
0.2575
100
AcDbLine
 10
768.972412
 20
54.830688
 30
0.0
 11
768.972412
 21
44.530685
 31
0.0
210
0.0
220
0.0
230
1.0
  0
LINE
  5
12F
100
AcDbEntity
  8
0
 62
     7
 48
0.2575
100
AcDbLine
 10
768.972412
 20
44.530685
 30
0.0
 11
768.972412
 21
34.230682
 31
0.0
210
0.0
220
0.0
230
1.0
  0
LINE
  5
130
100
AcDbEntity
  8
0
 62
     7
 48
0.2575
100
AcDbLine
 10
768.972412
 20
29.830688
 30
0.0
 11
768.972412
 21
19.530685
 31
0.0
210
0.0
220
0.0
230
1.0
  0
LINE
  5
131
100
AcDbEntity
  8
0
 62
     7
 48
0.2575
100
AcDbLine
 10
768.972412
 20
19.530685
 30
0.0
 11
768.972412
 21
9.230682
 31
0.0
210
0.0
220
0.0
230
1.0
  0
LINE
  5
132
100
AcDbEntity
  8
0
 62
     7
 48
0.0375
100
AcDbLine
 10
764.2724
 20
119.530685
 30
0.0
 11
765.7724
 21
119.530685
 31
0.0
210
0.0
220
0.0
230
1.0
  0
LINE
  5
133
100
AcDbEntity
  8
0
 62
     7
 48
0.0375
100
AcDbLine
 10
764.2724
 20
4.530685
 30
0.0
 11
765.7724
 21
4.530685
 31
0.0
210
0.0
220
0.0
230
1.0
  0
LINE
  5
134
100
AcDbEntity
  8
0
 62
     7
 48
0.08
100
AcDbLine
 10
765.7724
 20
54.830688
 30
0.0
 11
768.972412
 21
54.830688
 31
0.0
210
0.0
220
0.0
230
1.0
  0
LINE
  5
135
100
AcDbEntity
  8
0
 62
     7
 48
0.08
100
AcDbLine
 10
765.7724
 20
44.530685
 30
0.0
 11
768.972412
 21
44.530685
 31
0.0
210
0.0
220
0.0
230
1.0
  0
LINE
  5
136
100
AcDbEntity
  8
0
 62
     7
 48
0.08
100
AcDbLine
 10
765.7724
 20
34.230682
 30
0.0
 11
768.972412
 21
34.230682
 31
0.0
210
0.0
220
0.0
230
1.0
  0
LINE
  5
137
100
AcDbEntity
  8
0
 62
     7
 48
0.08
100
AcDbLine
 10
765.7724
 20
29.830688
 30
0.0
 11
768.972412
 21
29.830688
 31
0.0
210
0.0
220
0.0
230
1.0
  0
LINE
  5
138
100
AcDbEntity
  8
0
 62
     7
 48
0.08
100
AcDbLine
 10
765.7724
 20
19.530685
 30
0.0
 11
768.972412
 21
19.530685
 31
0.0
210
0.0
220
0.0
230
1.0
  0
LINE
  5
139
100
AcDbEntity
  8
0
 62
     7
 48
0.08
100
AcDbLine
 10
765.7724
 20
9.230682
 30
0.0
 11
768.972412
 21
9.230682
 31
0.0
210
0.0
220
0.0
230
1.0
  0
LINE
  5
13A
100
AcDbEntity
  8
0
 62
     7
 48
0.1875
100
AcDbLine
 10
777.2724
 20
19.530685
 30
0.0
 11
777.2724
 21
27.030685
 31
0.0
210
0.0
220
0.0
230
1.0
  0
LINE
  5
13B
100
AcDbEntity
  8
0
 62
     7
 48
0.1875
100
AcDbLine
 10
777.2724
 20
12.030685
 30
0.0
 11
777.2724
 21
19.530685
 31
0.0
210
0.0
220
0.0
230
1.0
  0
LINE
  5
13C
100
AcDbEntity
  8
0
 62
     7
 48
0.1875
100
AcDbLine
 10
777.2724
 20
44.530685
 30
0.0
 11
777.2724
 21
52.030685
 31
0.0
210
0.0
220
0.0
230
1.0
  0
LINE
  5
13D
100
AcDbEntity
  8
0
 62
     7
 48
0.1875
100
AcDbLine
 10
777.2724
 20
37.030685
 30
0.0
 11
777.2724
 21
44.530685
 31
0.0
210
0.0
220
0.0
230
1.0
  0
LINE
  5
13E
100
AcDbEntity
  8
0
 62
     7
 48
0.0875
100
AcDbLine
 10
776.7724
 20
73.030685
 30
0.0
 11
776.7724
 21
76.530685
 31
0.0
210
0.0
220
0.0
230
1.0
  0
LINE
  5
13F
100
AcDbEntity
  8
0
 62
     7
 48
0.2625
100
AcDbLine
 10
776.7724
 20
62.530685
 30
0.0
 11
776.7724
 21
73.030685
 31
0.0
210
0.0
220
0.0
230
1.0
  0
LINE
  5
140
100
AcDbEntity
  8
0
 62
     7
 48
0.2375
100
AcDbLine
 10
769.7724
 20
79.030685
 30
0.0
 11
769.7724
 21
69.530685
 31
0.0
210
0.0
220
0.0
230
1.0
  0
LINE
  5
141
100
AcDbEntity
  8
0
 62
     7
 48
0.2375
100
AcDbLine
 10
769.7724
 20
69.530685
 30
0.0
 11
769.7724
 21
60.030685
 31
0.0
210
0.0
220
0.0
230
1.0
  0
LINE
  5
142
100
AcDbEntity
  8
0
 62
     7
 48
0.1
100
AcDbLine
 10
765.7724
 20
79.030685
 30
0.0
 11
769.7724
 21
79.030685
 31
0.0
210
0.0
220
0.0
230
1.0
  0
LINE
  5
143
100
AcDbEntity
  8
0
 62
     7
 48
0.1
100
AcDbLine
 10
765.7724
 20
69.530685
 30
0.0
 11
769.7724
 21
69.530685
 31
0.0
210
0.0
220
0.0
230
1.0
  0
LINE
  5
144
100
AcDbEntity
  8
0
 62
     7
 48
0.1
100
AcDbLine
 10
765.7724
 20
60.030685
 30
0.0
 11
769.7724
 21
60.030685
 31
0.0
210
0.0
220
0.0
230
1.0
  0
LINE
  5
145
100
AcDbEntity
  8
0
 62
     7
 48
0.125
100
AcDbLine
 10
770.2724
 20
87.080688
 30
0.0
 11
775.2724
 21
87.080688
 31
0.0
210
0.0
220
0.0
230
1.0
  0
LINE
  5
146
100
AcDbEntity
  8
0
 62
     7
 48
0.125
100
AcDbLine
 10
770.2724
 20
109.980682
 30
0.0
 11
775.2724
 21
109.980682
 31
0.0
210
0.0
220
0.0
230
1.0
  0
LINE
  5
147
100
AcDbEntity
  8
0
 62
     7
 48
0.2075
100
AcDbLine
 10
768.972412
 20
27.030685
 30
0.0
 11
777.2724
 21
27.030685
 31
0.0
210
0.0
220
0.0
230
1.0
  0
LINE
  5
148
100
AcDbEntity
  8
0
 62
     7
 48
0.2075
100
AcDbLine
 10
768.972412
 20
12.030685
 30
0.0
 11
777.2724
 21
12.030685
 31
0.0
210
0.0
220
0.0
230
1.0
  0
LINE
  5
149
100
AcDbEntity
  8
0
 62
     7
 48
0.2075
100
AcDbLine
 10
768.972412
 20
52.030685
 30
0.0
 11
777.2724
 21
52.030685
 31
0.0
210
0.0
220
0.0
230
1.0
  0
LINE
  5
14A
100
AcDbEntity
  8
0
 62
     7
 48
0.2075
100
AcDbLine
 10
768.972412
 20
37.030685
 30
0.0
 11
777.2724
 21
37.030685
 31
0.0
210
0.0
220
0.0
230
1.0
  0
LINE
  5
14B
100
AcDbEntity
  8
0
 62
     7
 48
0.175
100
AcDbLine
 10
769.7724
 20
76.530685
 30
0.0
 11
776.7724
 21
76.530685
 31
0.0
210
0.0
220
0.0
230
1.0
  0
LINE
  5
14C
100
AcDbEntity
  8
0
 62
     7
 48
0.175
100
AcDbLine
 10
769.7724
 20
62.530685
 30
0.0
 11
776.7724
 21
62.530685
 31
0.0
210
0.0
220
0.0
230
1.0
  0
LINE
  5
14D
100
AcDbEntity
  8
0
 62
     7
 48
0.36875
100
AcDbLine
 10
742.5224
 20
-81.719315
 30
0.0
 11
742.5224
 21
-96.469315
 31
0.0
210
0.0
220
0.0
230
1.0
  0
LINE
  5
14E
100
AcDbEntity
  8
0
 62
     7
 48
0.36875
100
AcDbLine
 10
736.0224
 20
-96.469315
 30
0.0
 11
736.0224
 21
-81.719315
 31
0.0
210
0.0
220
0.0
230
1.0
  0
ARC
  5
14F
100
AcDbEntity
  8
0
 62
     7
100
AcDbCircle
 10
739.2724
 20
-81.719315
 30
0.0
 40
3.25
210
0.0
220
0.0
230
1.0
100
AcDbArc
 50
360.0
 51
180.000005
  0
LINE
  5
150
100
AcDbEntity
  8
0
 62
     7
 48
0.05
100
AcDbLine
 10
764.2724
 20
-68.469315
 30
0.0
 11
764.2724
 21
-70.469315
 31
0.0
210
0.0
220
0.0
230
1.0
  0
LINE
  5
151
100
AcDbEntity
  8
0
 62
     7
 48
0.05
100
AcDbLine
 10
714.2724
 20
-68.469315
 30
0.0
 11
714.2724
 21
-70.469315
 31
0.0
210
0.0
220
0.0
230
1.0
  0
LINE
  5
152
100
AcDbEntity
  8
0
 62
     7
 48
0.05
100
AcDbLine
 10
716.2724
 20
-66.469315
 30
0.0
 11
714.2724
 21
-66.469315
 31
0.0
210
0.0
220
0.0
230
1.0
  0
LINE
  5
153
100
AcDbEntity
  8
0
 62
     7
 48
0.05
100
AcDbLine
 10
714.2724
 20
-68.469315
 30
0.0
 11
714.2724
 21
-66.469315
 31
0.0
210
0.0
220
0.0
230
1.0
  0
LINE
  5
154
100
AcDbEntity
  8
0
 62
     7
 48
0.05
100
AcDbLine
 10
716.2724
 20
-68.469315
 30
0.0
 11
714.2724
 21
-68.469315
 31
0.0
210
0.0
220
0.0
230
1.0
  0
LINE
  5
155
100
AcDbEntity
  8
0
 62
     7
 48
0.05
100
AcDbLine
 10
716.2724
 20
-68.469315
 30
0.0
 11
716.2724
 21
-66.469315
 31
0.0
210
0.0
220
0.0
230
1.0
  0
LINE
  5
156
100
AcDbEntity
  8
0
 62
     7
100
AcDbLine
 10
762.2724
 20
-68.469315
 30
0.0
 11
716.2724
 21
-68.469315
 31
0.0
210
0.0
220
0.0
230
1.0
  0
LINE
  5
157
100
AcDbEntity
  8
0
 62
     7
 48
0.05
100
AcDbLine
 10
764.2724
 20
-68.469315
 30
0.0
 11
762.2724
 21
-68.469315
 31
0.0
210
0.0
220
0.0
230
1.0
  0
LINE
  5
158
100
AcDbEntity
  8
0
 62
     7
100
AcDbLine
 10
762.2724
 20
-66.469315
 30
0.0
 11
716.2724
 21
-66.469315
 31
0.0
210
0.0
220
0.0
230
1.0
  0
LINE
  5
159
100
AcDbEntity
  8
0
 62
     7
 48
0.05
100
AcDbLine
 10
764.2724
 20
-66.469315
 30
0.0
 11
762.2724
 21
-66.469315
 31
0.0
210
0.0
220
0.0
230
1.0
  0
LINE
  5
15A
100
AcDbEntity
  8
0
 62
     7
 48
0.05
100
AcDbLine
 10
762.2724
 20
-68.469315
 30
0.0
 11
762.2724
 21
-66.469315
 31
0.0
210
0.0
220
0.0
230
1.0
  0
LINE
  5
15B
100
AcDbEntity
  8
0
 62
     7
 48
0.05
100
AcDbLine
 10
764.2724
 20
-68.469315
 30
0.0
 11
764.2724
 21
-66.469315
 31
0.0
210
0.0
220
0.0
230
1.0
  0
LINE
  5
15C
100
AcDbEntity
  8
0
 62
     7
 48
0.49375
100
AcDbLine
 10
762.2724
 20
-96.469315
 30
0.0
 11
742.5224
 21
-96.469315
 31
0.0
210
0.0
220
0.0
230
1.0
  0
LINE
  5
15D
100
AcDbEntity
  8
0
 62
     7
100
AcDbLine
 10
764.2724
 20
-70.469315
 30
0.0
 11
764.2724
 21
-94.469315
 31
0.0
210
0.0
220
0.0
230
1.0
  0
ARC
  5
15E
100
AcDbEntity
  8
0
 62
     7
100
AcDbCircle
 10
762.2724
 20
-94.469315
 30
0.0
 40
2.0
210
0.0
220
0.0
230
1.0
100
AcDbArc
 50
269.999997
 51
360.0
  0
LINE
  5
15F
100
AcDbEntity
  8
0
 62
     7
 48
0.49375
100
AcDbLine
 10
736.0224
 20
-96.469315
 30
0.0
 11
716.2724
 21
-96.469315
 31
0.0
210
0.0
220
0.0
230
1.0
  0
LINE
  5
160
100
AcDbEntity
  8
0
 62
     7
100
AcDbLine
 10
714.2724
 20
-70.469315
 30
0.0
 11
714.2724
 21
-94.469315
 31
0.0
210
0.0
220
0.0
230
1.0
  0
ARC
  5
161
100
AcDbEntity
  8
0
 62
     7
100
AcDbCircle
 10
716.2724
 20
-94.469315
 30
0.0
 40
2.0
210
0.0
220
0.0
230
1.0
100
AcDbArc
 50
180.000005
 51
269.999997
  0
LINE
  5
162
100
AcDbEntity
  8
0
 62
     7
 48
0.025
100
AcDbLine
 10
764.2724
 20
906.530701
 30
0.0
 11
764.2724
 21
907.530701
 31
0.0
210
0.0
220
0.0
230
1.0
  0
LINE
  5
163
100
AcDbEntity
  8
0
 62
     7
 48
0.025
100
AcDbLine
 10
714.2724
 20
906.530701
 30
0.0
 11
714.2724
 21
907.530701
 31
0.0
210
0.0
220
0.0
230
1.0
  0
LINE
  5
164
100
AcDbEntity
  8
0
 62
     7
100
AcDbLine
 10
764.2724
 20
906.530701
 30
0.0
 11
714.2724
 21
906.530701
 31
0.0
210
0.0
220
0.0
230
1.0
  0
LINE
  5
165
100
AcDbEntity
  8
0
 62
     7
100
AcDbLine
 10
764.2724
 20
907.530701
 30
0.0
 11
714.2724
 21
907.530701
 31
0.0
210
0.0
220
0.0
230
1.0
  0
LINE
  5
166
100
AcDbEntity
  8
0
 62
     7
 48
0.025
100
AcDbLine
 10
764.2724
 20
-66.469315
 30
0.0
 11
764.2724
 21
-65.469315
 31
0.0
210
0.0
220
0.0
230
1.0
  0
LINE
  5
167
100
AcDbEntity
  8
0
 62
     7
 48
0.025
100
AcDbLine
 10
714.2724
 20
-66.469315
 30
0.0
 11
714.2724
 21
-65.469315
 31
0.0
210
0.0
220
0.0
230
1.0
  0
LINE
  5
168
100
AcDbEntity
  8
0
 62
     7
100
AcDbLine
 10
764.2724
 20
-66.469315
 30
0.0
 11
714.2724
 21
-66.469315
 31
0.0
210
0.0
220
0.0
230
1.0
  0
LINE
  5
169
100
AcDbEntity
  8
0
 62
     7
100
AcDbLine
 10
764.2724
 20
-65.469315
 30
0.0
 11
714.2724
 21
-65.469315
 31
0.0
210
0.0
220
0.0
230
1.0
  0
LINE
  5
16A
100
AcDbEntity
  8
0
 62
     7
100
AcDbLine
 10
878.247498
 20
-65.469315
 30
0.0
 11
878.247498
 21
906.530701
 31
0.0
210
0.0
220
0.0
230
1.0
  0
LINE
  5
16B
100
AcDbEntity
  8
0
 62
     7
100
AcDbLine
 10
828.247498
 20
-65.469315
 30
0.0
 11
828.247498
 21
906.530701
 31
0.0
210
0.0
220
0.0
230
1.0
  0
LINE
  5
16C
100
AcDbEntity
  8
0
 62
     7
100
AcDbLine
 10
828.247498
 20
-65.469315
 30
0.0
 11
878.247498
 21
-65.469315
 31
0.0
210
0.0
220
0.0
230
1.0
  0
LINE
  5
16D
100
AcDbEntity
  8
0
 62
     7
100
AcDbLine
 10
828.247498
 20
906.530701
 30
0.0
 11
878.247498
 21
906.530701
 31
0.0
210
0.0
220
0.0
230
1.0
  0
ARC
  5
16E
100
AcDbEntity
  8
0
 62
     7
100
AcDbCircle
 10
881.247498
 20
911.530701
 30
0.0
 40
4.0
210
0.0
220
0.0
230
1.0
100
AcDbArc
 50
269.999997
 51
360.0
  0
ARC
  5
16F
100
AcDbEntity
  8
0
 62
     7
100
AcDbCircle
 10
881.247498
 20
911.530701
 30
0.0
 40
2.0
210
0.0
220
0.0
230
1.0
100
AcDbArc
 50
269.999997
 51
360.0
  0
LINE
  5
170
100
AcDbEntity
  8
0
 62
     7
 48
0.05
100
AcDbLine
 10
828.247498
 20
907.530701
 30
0.0
 11
830.247498
 21
907.530701
 31
0.0
210
0.0
220
0.0
230
1.0
  0
LINE
  5
171
100
AcDbEntity
  8
0
 62
     7
 48
0.05
100
AcDbLine
 10
830.247498
 20
909.530701
 30
0.0
 11
830.247498
 21
907.530701
 31
0.0
210
0.0
220
0.0
230
1.0
  0
LINE
  5
172
100
AcDbEntity
  8
0
 62
     7
 48
0.05
100
AcDbLine
 10
828.247498
 20
909.530701
 30
0.0
 11
830.247498
 21
909.530701
 31
0.0
210
0.0
220
0.0
230
1.0
  0
LINE
  5
173
100
AcDbEntity
  8
0
 62
     7
 48
0.05
100
AcDbLine
 10
828.247498
 20
909.530701
 30
0.0
 11
828.247498
 21
907.530701
 31
0.0
210
0.0
220
0.0
230
1.0
  0
LINE
  5
174
100
AcDbEntity
  8
0
 62
     7
100
AcDbLine
 10
830.247498
 20
909.530701
 30
0.0
 11
881.247498
 21
909.530701
 31
0.0
210
0.0
220
0.0
230
1.0
  0
LINE
  5
175
100
AcDbEntity
  8
0
 62
     7
100
AcDbLine
 10
830.247498
 20
907.530701
 30
0.0
 11
881.247498
 21
907.530701
 31
0.0
210
0.0
220
0.0
230
1.0
  0
LINE
  5
176
100
AcDbEntity
  8
0
 62
     7
 48
0.05
100
AcDbLine
 10
885.247498
 20
937.530701
 30
0.0
 11
883.247498
 21
937.530701
 31
0.0
210
0.0
220
0.0
230
1.0
  0
LINE
  5
177
100
AcDbEntity
  8
0
 62
     7
100
AcDbLine
 10
883.247498
 20
911.530701
 30
0.0
 11
883.247498
 21
935.530701
 31
0.0
210
0.0
220
0.0
230
1.0
  0
LINE
  5
178
100
AcDbEntity
  8
0
 62
     7
100
AcDbLine
 10
885.247498
 20
911.530701
 30
0.0
 11
885.247498
 21
935.530701
 31
0.0
210
0.0
220
0.0
230
1.0
  0
LINE
  5
179
100
AcDbEntity
  8
0
 62
     7
 48
0.05
100
AcDbLine
 10
885.247498
 20
935.530701
 30
0.0
 11
883.247498
 21
935.530701
 31
0.0
210
0.0
220
0.0
230
1.0
  0
LINE
  5
17A
100
AcDbEntity
  8
0
 62
     7
 48
0.05
100
AcDbLine
 10
885.247498
 20
935.530701
 30
0.0
 11
885.247498
 21
937.530701
 31
0.0
210
0.0
220
0.0
230
1.0
  0
LINE
  5
17B
100
AcDbEntity
  8
0
 62
     7
 48
0.05
100
AcDbLine
 10
883.247498
 20
935.530701
 30
0.0
 11
883.247498
 21
937.530701
 31
0.0
210
0.0
220
0.0
230
1.0
  0
LINE
  5
17C
100
AcDbEntity
  8
0
 62
     7
100
AcDbLine
 10
833.247498
 20
119.530685
 30
0.0
 11
873.247498
 21
119.530685
 31
0.0
210
0.0
220
0.0
230
1.0
  0
LINE
  5
17D
100
AcDbEntity
  8
0
 62
     7
100
AcDbLine
 10
833.247498
 20
4.530685
 30
0.0
 11
833.247498
 21
119.530685
 31
0.0
210
0.0
220
0.0
230
1.0
  0
LINE
  5
17E
100
AcDbEntity
  8
0
 62
     7
100
AcDbLine
 10
873.247498
 20
4.530685
 30
0.0
 11
833.247498
 21
4.530685
 31
0.0
210
0.0
220
0.0
230
1.0
  0
LINE
  5
17F
100
AcDbEntity
  8
0
 62
     7
100
AcDbLine
 10
873.247498
 20
119.530685
 30
0.0
 11
873.247498
 21
4.530685
 31
0.0
210
0.0
220
0.0
230
1.0
  0
CIRCLE
  5
180
100
AcDbEntity
  8
0
 62
     7
100
AcDbCircle
 10
838.197449
 20
113.980682
 30
0.0
 40
2.25
210
0.0
220
0.0
230
1.0
  0
CIRCLE
  5
181
100
AcDbEntity
  8
0
 62
     7
100
AcDbCircle
 10
868.297546
 20
113.980682
 30
0.0
 40
2.25
210
0.0
220
0.0
230
1.0
  0
CIRCLE
  5
182
100
AcDbEntity
  8
0
 62
     7
100
AcDbCircle
 10
868.297546
 20
62.030685
 30
0.0
 40
2.25
210
0.0
220
0.0
230
1.0
  0
CIRCLE
  5
183
100
AcDbEntity
  8
0
 62
     7
100
AcDbCircle
 10
838.197449
 20
62.030685
 30
0.0
 40
2.25
210
0.0
220
0.0
230
1.0
  0
CIRCLE
  5
184
100
AcDbEntity
  8
0
 62
     7
100
AcDbCircle
 10
868.297546
 20
10.080688
 30
0.0
 40
2.25
210
0.0
220
0.0
230
1.0
  0
CIRCLE
  5
185
100
AcDbEntity
  8
0
 62
     7
100
AcDbCircle
 10
838.197449
 20
10.080688
 30
0.0
 40
2.25
210
0.0
220
0.0
230
1.0
  0
CIRCLE
  5
186
100
AcDbEntity
  8
0
 62
     7
100
AcDbCircle
 10
850.324646
 20
100.218185
 30
0.0
 40
0.175
210
0.0
220
0.0
230
1.0
  0
CIRCLE
  5
187
100
AcDbEntity
  8
0
 62
     7
100
AcDbCircle
 10
856.170349
 20
96.843185
 30
0.0
 40
0.175
210
0.0
220
0.0
230
1.0
  0
CIRCLE
  5
188
100
AcDbEntity
  8
0
 62
     7
100
AcDbCircle
 10
853.247498
 20
95.155685
 30
0.0
 40
0.175
210
0.0
220
0.0
230
1.0
  0
CIRCLE
  5
189
100
AcDbEntity
  8
0
 62
     7
100
AcDbCircle
 10
859.093201
 20
98.530685
 30
0.0
 40
0.175
210
0.0
220
0.0
230
1.0
  0
CIRCLE
  5
18A
100
AcDbEntity
  8
0
 62
     7
100
AcDbCircle
 10
853.247498
 20
101.905685
 30
0.0
 40
0.175
210
0.0
220
0.0
230
1.0
  0
CIRCLE
  5
18B
100
AcDbEntity
  8
0
 62
     7
100
AcDbCircle
 10
856.170349
 20
100.218185
 30
0.0
 40
0.175
210
0.0
220
0.0
230
1.0
  0
CIRCLE
  5
18C
100
AcDbEntity
  8
0
 62
     7
100
AcDbCircle
 10
859.093201
 20
95.155685
 30
0.0
 40
0.175
210
0.0
220
0.0
230
1.0
  0
CIRCLE
  5
18D
100
AcDbEntity
  8
0
 62
     7
100
AcDbCircle
 10
850.324646
 20
96.843185
 30
0.0
 40
0.175
210
0.0
220
0.0
230
1.0
  0
CIRCLE
  5
18E
100
AcDbEntity
  8
0
 62
     7
100
AcDbCircle
 10
850.324646
 20
93.468185
 30
0.0
 40
0.175
210
0.0
220
0.0
230
1.0
  0
CIRCLE
  5
18F
100
AcDbEntity
  8
0
 62
     7
100
AcDbCircle
 10
850.324646
 20
103.593185
 30
0.0
 40
0.175
210
0.0
220
0.0
230
1.0
  0
CIRCLE
  5
190
100
AcDbEntity
  8
0
 62
     7
100
AcDbCircle
 10
856.170349
 20
93.468185
 30
0.0
 40
0.175
210
0.0
220
0.0
230
1.0
  0
CIRCLE
  5
191
100
AcDbEntity
  8
0
 62
     7
100
AcDbCircle
 10
853.247498
 20
98.530685
 30
0.0
 40
0.175
210
0.0
220
0.0
230
1.0
  0
CIRCLE
  5
192
100
AcDbEntity
  8
0
 62
     7
100
AcDbCircle
 10
859.093201
 20
101.905685
 30
0.0
 40
0.175
210
0.0
220
0.0
230
1.0
  0
CIRCLE
  5
193
100
AcDbEntity
  8
0
 62
     7
100
AcDbCircle
 10
847.401794
 20
101.905685
 30
0.0
 40
0.175
210
0.0
220
0.0
230
1.0
  0
CIRCLE
  5
194
100
AcDbEntity
  8
0
 62
     7
100
AcDbCircle
 10
853.247498
 20
91.780685
 30
0.0
 40
0.175
210
0.0
220
0.0
230
1.0
  0
CIRCLE
  5
195
100
AcDbEntity
  8
0
 62
     7
100
AcDbCircle
 10
847.401794
 20
95.155685
 30
0.0
 40
0.175
210
0.0
220
0.0
230
1.0
  0
CIRCLE
  5
196
100
AcDbEntity
  8
0
 62
     7
100
AcDbCircle
 10
847.401794
 20
98.530685
 30
0.0
 40
0.175
210
0.0
220
0.0
230
1.0
  0
CIRCLE
  5
197
100
AcDbEntity
  8
0
 62
     7
100
AcDbCircle
 10
853.247498
 20
105.280685
 30
0.0
 40
0.175
210
0.0
220
0.0
230
1.0
  0
LINE
  5
198
100
AcDbEntity
  8
0
 62
     7
 48
0.418579
100
AcDbLine
 10
844.875916
 20
84.030685
 30
0.0
 11
861.61908
 21
84.030685
 31
0.0
210
0.0
220
0.0
230
1.0
  0
LINE
  5
199
100
AcDbEntity
  8
0
 62
     7
 48
0.418579
100
AcDbLine
 10
836.504333
 20
98.530685
 30
0.0
 11
844.875916
 21
84.030685
 31
0.0
210
0.0
220
0.0
230
1.0
  0
LINE
  5
19A
100
AcDbEntity
  8
0
 62
     7
 48
0.418579
100
AcDbLine
 10
844.875916
 20
113.030685
 30
0.0
 11
836.504333
 21
98.530685
 31
0.0
210
0.0
220
0.0
230
1.0
  0
LINE
  5
19B
100
AcDbEntity
  8
0
 62
     7
 48
0.418579
100
AcDbLine
 10
861.61908
 20
113.030685
 30
0.0
 11
844.875916
 21
113.030685
 31
0.0
210
0.0
220
0.0
230
1.0
  0
LINE
  5
19C
100
AcDbEntity
  8
0
 62
     7
 48
0.418579
100
AcDbLine
 10
869.990662
 20
98.530685
 30
0.0
 11
861.61908
 21
113.030685
 31
0.0
210
0.0
220
0.0
230
1.0
  0
LINE
  5
19D
100
AcDbEntity
  8
0
 62
     7
 48
0.418579
100
AcDbLine
 10
861.61908
 20
84.030685
 30
0.0
 11
869.990662
 21
98.530685
 31
0.0
210
0.0
220
0.0
230
1.0
  0
CIRCLE
  5
19E
100
AcDbEntity
  8
0
 62
     7
100
AcDbCircle
 10
850.324646
 20
100.218185
 30
0.0
 40
0.425
210
0.0
220
0.0
230
1.0
  0
CIRCLE
  5
19F
100
AcDbEntity
  8
0
 62
     7
100
AcDbCircle
 10
856.170349
 20
96.843185
 30
0.0
 40
0.425
210
0.0
220
0.0
230
1.0
  0
CIRCLE
  5
1A0
100
AcDbEntity
  8
0
 62
     7
100
AcDbCircle
 10
853.247498
 20
95.155685
 30
0.0
 40
0.425
210
0.0
220
0.0
230
1.0
  0
CIRCLE
  5
1A1
100
AcDbEntity
  8
0
 62
     7
100
AcDbCircle
 10
859.093201
 20
98.530685
 30
0.0
 40
0.425
210
0.0
220
0.0
230
1.0
  0
CIRCLE
  5
1A2
100
AcDbEntity
  8
0
 62
     7
100
AcDbCircle
 10
853.247498
 20
101.905685
 30
0.0
 40
0.425
210
0.0
220
0.0
230
1.0
  0
CIRCLE
  5
1A3
100
AcDbEntity
  8
0
 62
     7
100
AcDbCircle
 10
856.170349
 20
100.218185
 30
0.0
 40
0.425
210
0.0
220
0.0
230
1.0
  0
CIRCLE
  5
1A4
100
AcDbEntity
  8
0
 62
     7
100
AcDbCircle
 10
859.093201
 20
95.155685
 30
0.0
 40
0.425
210
0.0
220
0.0
230
1.0
  0
CIRCLE
  5
1A5
100
AcDbEntity
  8
0
 62
     7
100
AcDbCircle
 10
850.324646
 20
96.843185
 30
0.0
 40
0.425
210
0.0
220
0.0
230
1.0
  0
CIRCLE
  5
1A6
100
AcDbEntity
  8
0
 62
     7
100
AcDbCircle
 10
850.324646
 20
93.468185
 30
0.0
 40
0.425
210
0.0
220
0.0
230
1.0
  0
CIRCLE
  5
1A7
100
AcDbEntity
  8
0
 62
     7
100
AcDbCircle
 10
850.324646
 20
103.593185
 30
0.0
 40
0.425
210
0.0
220
0.0
230
1.0
  0
CIRCLE
  5
1A8
100
AcDbEntity
  8
0
 62
     7
100
AcDbCircle
 10
856.170349
 20
93.468185
 30
0.0
 40
0.425
210
0.0
220
0.0
230
1.0
  0
CIRCLE
  5
1A9
100
AcDbEntity
  8
0
 62
     7
100
AcDbCircle
 10
853.247498
 20
98.530685
 30
0.0
 40
0.425
210
0.0
220
0.0
230
1.0
  0
CIRCLE
  5
1AA
100
AcDbEntity
  8
0
 62
     7
100
AcDbCircle
 10
859.093201
 20
101.905685
 30
0.0
 40
0.425
210
0.0
220
0.0
230
1.0
  0
CIRCLE
  5
1AB
100
AcDbEntity
  8
0
 62
     7
100
AcDbCircle
 10
847.401794
 20
101.905685
 30
0.0
 40
0.425
210
0.0
220
0.0
230
1.0
  0
CIRCLE
  5
1AC
100
AcDbEntity
  8
0
 62
     7
100
AcDbCircle
 10
853.247498
 20
91.780685
 30
0.0
 40
0.425
210
0.0
220
0.0
230
1.0
  0
CIRCLE
  5
1AD
100
AcDbEntity
  8
0
 62
     7
100
AcDbCircle
 10
847.401794
 20
95.155685
 30
0.0
 40
0.425
210
0.0
220
0.0
230
1.0
  0
CIRCLE
  5
1AE
100
AcDbEntity
  8
0
 62
     7
100
AcDbCircle
 10
847.401794
 20
98.530685
 30
0.0
 40
0.425
210
0.0
220
0.0
230
1.0
  0
CIRCLE
  5
1AF
100
AcDbEntity
  8
0
 62
     7
100
AcDbCircle
 10
853.247498
 20
105.280685
 30
0.0
 40
0.425
210
0.0
220
0.0
230
1.0
  0
LINE
  5
1B0
100
AcDbEntity
  8
0
 62
     7
 48
0.007502
100
AcDbLine
 10
856.814514
 20
105.708893
 30
0.0
 11
856.554626
 21
105.858887
 31
0.0
210
0.0
220
0.0
230
1.0
  0
ARC
  5
1B1
100
AcDbEntity
  8
0
 62
     7
100
AcDbCircle
 10
857.247498
 20
105.458893
 30
0.0
 40
0.8
210
0.0
220
0.0
230
1.0
100
AcDbArc
 50
149.999997
 51
329.999999
  0
LINE
  5
1B2
100
AcDbEntity
  8
0
 62
     7
 48
0.007502
100
AcDbLine
 10
857.680481
 20
105.208893
 30
0.0
 11
857.940369
 21
105.058884
 31
0.0
210
0.0
220
0.0
230
1.0
  0
ARC
  5
1B3
100
AcDbEntity
  8
0
 62
     7
100
AcDbCircle
 10
857.247498
 20
105.458893
 30
0.0
 40
0.5
210
0.0
220
0.0
230
1.0
100
AcDbArc
 50
150.000066
 51
329.999999
  0
CIRCLE
  5
1B4
100
AcDbEntity
  8
0
 62
     7
100
AcDbCircle
 10
853.247498
 20
98.530685
 30
0.0
 40
11.45
210
0.0
220
0.0
230
1.0
  0
LINE
  5
1B5
100
AcDbEntity
  8
0
 62
     7
 48
0.030911
100
AcDbLine
 10
856.814514
 20
105.708893
 30
0.0
 11
857.432678
 21
106.779709
 31
0.0
210
0.0
220
0.0
230
1.0
  0
LINE
  5
1B6
100
AcDbEntity
  8
0
 62
     7
 48
0.030912
100
AcDbLine
 10
857.680481
 20
105.208893
 30
0.0
 11
858.298767
 21
106.279709
 31
0.0
210
0.0
220
0.0
230
1.0
  0
LINE
  5
1B7
100
AcDbEntity
  8
0
 62
     7
 48
0.030384
100
AcDbLine
 10
856.554626
 20
105.858887
 30
0.0
 11
857.162292
 21
106.911407
 31
0.0
210
0.0
220
0.0
230
1.0
  0
LINE
  5
1B8
100
AcDbEntity
  8
0
 62
     7
 48
0.030384
100
AcDbLine
 10
857.940369
 20
105.058884
 30
0.0
 11
858.548035
 21
106.111404
 31
0.0
210
0.0
220
0.0
230
1.0
  0
CIRCLE
  5
1B9
100
AcDbEntity
  8
0
 62
     7
100
AcDbCircle
 10
853.247498
 20
98.530685
 30
0.0
 40
9.25
210
0.0
220
0.0
230
1.0
  0
LINE
  5
1BA
100
AcDbEntity
  8
0
 62
     7
 48
0.297333
100
AcDbLine
 10
847.300842
 20
34.230682
 30
0.0
 11
859.194153
 21
34.230682
 31
0.0
210
0.0
220
0.0
230
1.0
  0
LINE
  5
1BB
100
AcDbEntity
  8
0
 62
     7
 48
0.297336
100
AcDbLine
 10
859.194153
 20
34.230682
 30
0.0
 11
865.14093
 21
44.530685
 31
0.0
210
0.0
220
0.0
230
1.0
  0
LINE
  5
1BC
100
AcDbEntity
  8
0
 62
     7
 48
0.297336
100
AcDbLine
 10
865.14093
 20
44.530685
 30
0.0
 11
859.194153
 21
54.830688
 31
0.0
210
0.0
220
0.0
230
1.0
  0
LINE
  5
1BD
100
AcDbEntity
  8
0
 62
     7
 48
0.297333
100
AcDbLine
 10
859.194153
 20
54.830688
 30
0.0
 11
847.300842
 21
54.830688
 31
0.0
210
0.0
220
0.0
230
1.0
  0
LINE
  5
1BE
100
AcDbEntity
  8
0
 62
     7
 48
0.297336
100
AcDbLine
 10
847.300842
 20
54.830688
 30
0.0
 11
841.354065
 21
44.530685
 31
0.0
210
0.0
220
0.0
230
1.0
  0
LINE
  5
1BF
100
AcDbEntity
  8
0
 62
     7
 48
0.297336
100
AcDbLine
 10
841.354065
 20
44.530685
 30
0.0
 11
847.300842
 21
34.230682
 31
0.0
210
0.0
220
0.0
230
1.0
  0
LINE
  5
1C0
100
AcDbEntity
  8
0
 62
     7
 48
0.297333
100
AcDbLine
 10
847.300842
 20
9.230682
 30
0.0
 11
859.194153
 21
9.230682
 31
0.0
210
0.0
220
0.0
230
1.0
  0
LINE
  5
1C1
100
AcDbEntity
  8
0
 62
     7
 48
0.297336
100
AcDbLine
 10
859.194153
 20
9.230682
 30
0.0
 11
865.14093
 21
19.530685
 31
0.0
210
0.0
220
0.0
230
1.0
  0
LINE
  5
1C2
100
AcDbEntity
  8
0
 62
     7
 48
0.297336
100
AcDbLine
 10
865.14093
 20
19.530685
 30
0.0
 11
859.194153
 21
29.830688
 31
0.0
210
0.0
220
0.0
230
1.0
  0
LINE
  5
1C3
100
AcDbEntity
  8
0
 62
     7
 48
0.297333
100
AcDbLine
 10
859.194153
 20
29.830688
 30
0.0
 11
847.300842
 21
29.830688
 31
0.0
210
0.0
220
0.0
230
1.0
  0
LINE
  5
1C4
100
AcDbEntity
  8
0
 62
     7
 48
0.297336
100
AcDbLine
 10
847.300842
 20
29.830688
 30
0.0
 11
841.354065
 21
19.530685
 31
0.0
210
0.0
220
0.0
230
1.0
  0
LINE
  5
1C5
100
AcDbEntity
  8
0
 62
     7
 48
0.297336
100
AcDbLine
 10
841.354065
 20
19.530685
 30
0.0
 11
847.300842
 21
9.230682
 31
0.0
210
0.0
220
0.0
230
1.0
  0
CIRCLE
  5
1C6
100
AcDbEntity
  8
0
 62
     7
100
AcDbCircle
 10
853.247498
 20
19.530685
 30
0.0
 40
7.5
210
0.0
220
0.0
230
1.0
  0
CIRCLE
  5
1C7
100
AcDbEntity
  8
0
 62
     7
100
AcDbCircle
 10
853.247498
 20
44.530685
 30
0.0
 40
7.5
210
0.0
220
0.0
230
1.0
  0
CIRCLE
  5
1C8
100
AcDbEntity
  8
0
 62
     7
100
AcDbCircle
 10
853.247498
 20
69.530685
 30
0.0
 40
5.9
210
0.0
220
0.0
230
1.0
  0
CIRCLE
  5
1C9
100
AcDbEntity
  8
0
 62
     7
100
AcDbCircle
 10
853.247498
 20
69.530685
 30
0.0
 40
7.0
210
0.0
220
0.0
230
1.0
  0
LINE
  5
1CA
100
AcDbEntity
  8
0
 62
     7
 48
0.015991
100
AcDbLine
 10
856.495422
 20
74.456238
 30
0.0
 11
856.175598
 21
73.902313
 31
0.0
210
0.0
220
0.0
230
1.0
  0
LINE
  5
1CB
100
AcDbEntity
  8
0
 62
     7
 48
0.006251
100
AcDbLine
 10
856.175598
 20
73.902313
 30
0.0
 11
856.392151
 21
73.777313
 31
0.0
210
0.0
220
0.0
230
1.0
  0
LINE
  5
1CC
100
AcDbEntity
  8
0
 62
     7
 48
0.015485
100
AcDbLine
 10
856.701843
 20
74.313751
 30
0.0
 11
856.392151
 21
73.777313
 31
0.0
210
0.0
220
0.0
230
1.0
  0
LINE
  5
1CD
100
AcDbEntity
  8
0
 62
     7
 48
0.015485
100
AcDbLine
 10
855.352844
 20
74.377319
 30
0.0
 11
855.662537
 21
74.913742
 31
0.0
210
0.0
220
0.0
230
1.0
  0
LINE
  5
1CE
100
AcDbEntity
  8
0
 62
     7
 48
0.006251
100
AcDbLine
 10
855.569397
 20
74.252319
 30
0.0
 11
855.352844
 21
74.377319
 31
0.0
210
0.0
220
0.0
230
1.0
  0
LINE
  5
1CF
100
AcDbEntity
  8
0
 62
     7
 48
0.015991
100
AcDbLine
 10
855.569397
 20
74.252319
 30
0.0
 11
855.889221
 21
74.806244
 31
0.0
210
0.0
220
0.0
230
1.0
  0
ARC
  5
1D0
100
AcDbEntity
  8
0
 62
     7
100
AcDbCircle
 10
855.872498
 20
74.077316
 30
0.0
 40
0.35
210
0.0
220
0.0
230
1.0
100
AcDbArc
 50
150.000025
 51
329.999999
  0
ARC
  5
1D1
100
AcDbEntity
  8
0
 62
     7
100
AcDbCircle
 10
855.872498
 20
74.077316
 30
0.0
 40
0.6
210
0.0
220
0.0
230
1.0
100
AcDbArc
 50
149.999997
 51
329.999999
  0
CIRCLE
  5
1D2
100
AcDbEntity
  8
0
 62
     7
100
AcDbCircle
 10
855.047546
 20
72.648376
 30
0.0
 40
0.4
210
0.0
220
0.0
230
1.0
  0
CIRCLE
  5
1D3
100
AcDbEntity
  8
0
 62
     7
100
AcDbCircle
 10
853.247498
 20
69.530685
 30
0.0
 40
0.4
210
0.0
220
0.0
230
1.0
  0
CIRCLE
  5
1D4
100
AcDbEntity
  8
0
 62
     7
100
AcDbCircle
 10
856.807312
 20
70.06723
 30
0.0
 40
0.4
210
0.0
220
0.0
230
1.0
  0
CIRCLE
  5
1D5
100
AcDbEntity
  8
0
 62
     7
100
AcDbCircle
 10
855.886536
 20
67.082062
 30
0.0
 40
0.4
210
0.0
220
0.0
230
1.0
  0
CIRCLE
  5
1D6
100
AcDbEntity
  8
0
 62
     7
100
AcDbCircle
 10
852.978455
 20
65.94075
 30
0.0
 40
0.4
210
0.0
220
0.0
230
1.0
  0
CIRCLE
  5
1D7
100
AcDbEntity
  8
0
 62
     7
100
AcDbCircle
 10
850.27301
 20
67.502731
 30
0.0
 40
0.4
210
0.0
220
0.0
230
1.0
  0
CIRCLE
  5
1D8
100
AcDbEntity
  8
0
 62
     7
100
AcDbCircle
 10
849.807434
 20
70.591797
 30
0.0
 40
0.4
210
0.0
220
0.0
230
1.0
  0
CIRCLE
  5
1D9
100
AcDbEntity
  8
0
 62
     7
100
AcDbCircle
 10
851.932312
 20
72.881836
 30
0.0
 40
0.4
210
0.0
220
0.0
230
1.0
  0
LINE
  5
1DA
100
AcDbEntity
  8
0
 62
     7
 48
0.27424
100
AcDbLine
 10
858.732361
 20
60.030685
 30
0.0
 11
864.217102
 21
69.530685
 31
0.0
210
0.0
220
0.0
230
1.0
  0
LINE
  5
1DB
100
AcDbEntity
  8
0
 62
     7
 48
0.27424
100
AcDbLine
 10
864.217102
 20
69.530685
 30
0.0
 11
858.732361
 21
79.030685
 31
0.0
210
0.0
220
0.0
230
1.0
  0
LINE
  5
1DC
100
AcDbEntity
  8
0
 62
     7
 48
0.274243
100
AcDbLine
 10
858.732361
 20
79.030685
 30
0.0
 11
847.762634
 21
79.030685
 31
0.0
210
0.0
220
0.0
230
1.0
  0
LINE
  5
1DD
100
AcDbEntity
  8
0
 62
     7
 48
0.27424
100
AcDbLine
 10
847.762634
 20
79.030685
 30
0.0
 11
842.277893
 21
69.530685
 31
0.0
210
0.0
220
0.0
230
1.0
  0
LINE
  5
1DE
100
AcDbEntity
  8
0
 62
     7
 48
0.27424
100
AcDbLine
 10
842.277893
 20
69.530685
 30
0.0
 11
847.762634
 21
60.030685
 31
0.0
210
0.0
220
0.0
230
1.0
  0
LINE
  5
1DF
100
AcDbEntity
  8
0
 62
     7
 48
0.274243
100
AcDbLine
 10
847.762634
 20
60.030685
 30
0.0
 11
858.732361
 21
60.030685
 31
0.0
210
0.0
220
0.0
230
1.0
  0
CIRCLE
  5
1E0
100
AcDbEntity
  8
0
 62
     7
100
AcDbCircle
 10
855.047546
 20
72.648376
 30
0.0
 40
0.15
210
0.0
220
0.0
230
1.0
  0
CIRCLE
  5
1E1
100
AcDbEntity
  8
0
 62
     7
100
AcDbCircle
 10
853.247498
 20
69.530685
 30
0.0
 40
0.15
210
0.0
220
0.0
230
1.0
  0
CIRCLE
  5
1E2
100
AcDbEntity
  8
0
 62
     7
100
AcDbCircle
 10
856.807312
 20
70.06723
 30
0.0
 40
0.15
210
0.0
220
0.0
230
1.0
  0
CIRCLE
  5
1E3
100
AcDbEntity
  8
0
 62
     7
100
AcDbCircle
 10
855.886536
 20
67.082062
 30
0.0
 40
0.15
210
0.0
220
0.0
230
1.0
  0
CIRCLE
  5
1E4
100
AcDbEntity
  8
0
 62
     7
100
AcDbCircle
 10
852.978455
 20
65.94075
 30
0.0
 40
0.15
210
0.0
220
0.0
230
1.0
  0
CIRCLE
  5
1E5
100
AcDbEntity
  8
0
 62
     7
100
AcDbCircle
 10
850.27301
 20
67.502731
 30
0.0
 40
0.15
210
0.0
220
0.0
230
1.0
  0
CIRCLE
  5
1E6
100
AcDbEntity
  8
0
 62
     7
100
AcDbCircle
 10
849.807434
 20
70.591797
 30
0.0
 40
0.15
210
0.0
220
0.0
230
1.0
  0
CIRCLE
  5
1E7
100
AcDbEntity
  8
0
 62
     7
100
AcDbCircle
 10
851.932312
 20
72.881836
 30
0.0
 40
0.15
210
0.0
220
0.0
230
1.0
  0
ARC
  5
1E8
100
AcDbEntity
  8
0
 62
     7
100
AcDbCircle
 10
881.247498
 20
-70.469315
 30
0.0
 40
4.0
210
0.0
220
0.0
230
1.0
100
AcDbArc
 50
0.0
 51
90.000003
  0
ARC
  5
1E9
100
AcDbEntity
  8
0
 62
     7
100
AcDbCircle
 10
881.247498
 20
-70.469315
 30
0.0
 40
2.0
210
0.0
220
0.0
230
1.0
100
AcDbArc
 50
0.0
 51
90.000003
  0
LINE
  5
1EA
100
AcDbEntity
  8
0
 62
     7
100
AcDbLine
 10
830.247498
 20
-68.469315
 30
0.0
 11
881.247498
 21
-68.469315
 31
0.0
210
0.0
220
0.0
230
1.0
  0
LINE
  5
1EB
100
AcDbEntity
  8
0
 62
     7
 48
0.05
100
AcDbLine
 10
830.247498
 20
-68.469315
 30
0.0
 11
828.247498
 21
-68.469315
 31
0.0
210
0.0
220
0.0
230
1.0
  0
LINE
  5
1EC
100
AcDbEntity
  8
0
 62
     7
100
AcDbLine
 10
830.247498
 20
-66.469315
 30
0.0
 11
881.247498
 21
-66.469315
 31
0.0
210
0.0
220
0.0
230
1.0
  0
LINE
  5
1ED
100
AcDbEntity
  8
0
 62
     7
 48
0.05
100
AcDbLine
 10
828.247498
 20
-68.469315
 30
0.0
 11
828.247498
 21
-66.469315
 31
0.0
210
0.0
220
0.0
230
1.0
  0
LINE
  5
1EE
100
AcDbEntity
  8
0
 62
     7
 48
0.05
100
AcDbLine
 10
830.247498
 20
-68.469315
 30
0.0
 11
830.247498
 21
-66.469315
 31
0.0
210
0.0
220
0.0
230
1.0
  0
LINE
  5
1EF
100
AcDbEntity
  8
0
 62
     7
 48
0.05
100
AcDbLine
 10
885.247498
 20
-96.469315
 30
0.0
 11
883.247498
 21
-96.469315
 31
0.0
210
0.0
220
0.0
230
1.0
  0
LINE
  5
1F0
100
AcDbEntity
  8
0
 62
     7
100
AcDbLine
 10
883.247498
 20
-70.469315
 30
0.0
 11
883.247498
 21
-94.469315
 31
0.0
210
0.0
220
0.0
230
1.0
  0
LINE
  5
1F1
100
AcDbEntity
  8
0
 62
     7
100
AcDbLine
 10
885.247498
 20
-70.469315
 30
0.0
 11
885.247498
 21
-94.469315
 31
0.0
210
0.0
220
0.0
230
1.0
  0
LINE
  5
1F2
100
AcDbEntity
  8
0
 62
     7
 48
0.05
100
AcDbLine
 10
885.247498
 20
-94.469315
 30
0.0
 11
883.247498
 21
-94.469315
 31
0.0
210
0.0
220
0.0
230
1.0
  0
LINE
  5
1F3
100
AcDbEntity
  8
0
 62
     7
 48
0.05
100
AcDbLine
 10
883.247498
 20
-96.469315
 30
0.0
 11
883.247498
 21
-94.469315
 31
0.0
210
0.0
220
0.0
230
1.0
  0
LINE
  5
1F4
100
AcDbEntity
  8
0
 62
     7
 48
0.05
100
AcDbLine
 10
885.247498
 20
-96.469315
 30
0.0
 11
885.247498
 21
-94.469315
 31
0.0
210
0.0
220
0.0
230
1.0
  0
LINE
  5
1F5
100
AcDbEntity
  8
0
 62
     7
 48
0.025
100
AcDbLine
 10
828.247498
 20
906.530701
 30
0.0
 11
828.247498
 21
907.530701
 31
0.0
210
0.0
220
0.0
230
1.0
  0
LINE
  5
1F6
100
AcDbEntity
  8
0
 62
     7
100
AcDbLine
 10
828.247498
 20
906.530701
 30
0.0
 11
878.247498
 21
906.530701
 31
0.0
210
0.0
220
0.0
230
1.0
  0
LINE
  5
1F7
100
AcDbEntity
  8
0
 62
     7
 48
0.025
100
AcDbLine
 10
878.247498
 20
906.530701
 30
0.0
 11
878.247498
 21
907.530701
 31
0.0
210
0.0
220
0.0
230
1.0
  0
LINE
  5
1F8
100
AcDbEntity
  8
0
 62
     7
100
AcDbLine
 10
828.247498
 20
907.530701
 30
0.0
 11
878.247498
 21
907.530701
 31
0.0
210
0.0
220
0.0
230
1.0
  0
LINE
  5
1F9
100
AcDbEntity
  8
0
 62
     7
 48
0.025
100
AcDbLine
 10
828.247498
 20
-66.469315
 30
0.0
 11
828.247498
 21
-65.469315
 31
0.0
210
0.0
220
0.0
230
1.0
  0
LINE
  5
1FA
100
AcDbEntity
  8
0
 62
     7
100
AcDbLine
 10
828.247498
 20
-66.469315
 30
0.0
 11
878.247498
 21
-66.469315
 31
0.0
210
0.0
220
0.0
230
1.0
  0
LINE
  5
1FB
100
AcDbEntity
  8
0
 62
     7
 48
0.025
100
AcDbLine
 10
878.247498
 20
-66.469315
 30
0.0
 11
878.247498
 21
-65.469315
 31
0.0
210
0.0
220
0.0
230
1.0
  0
LINE
  5
1FC
100
AcDbEntity
  8
0
 62
     7
100
AcDbLine
 10
828.247498
 20
-65.469315
 30
0.0
 11
878.247498
 21
-65.469315
 31
0.0
210
0.0
220
0.0
230
1.0
  0
LINE
  5
1FD
100
AcDbEntity
  8
0
 62
     7
 48
0.05
100
AcDbLine
 10
764.2724
 20
-139.972778
 30
0.0
 11
764.2724
 21
-141.972778
 31
0.0
210
0.0
220
0.0
230
1.0
  0
LINE
  5
1FE
100
AcDbEntity
  8
0
 62
     7
100
AcDbLine
 10
765.7724
 20
-184.972778
 30
0.0
 11
765.7724
 21
-144.972778
 31
0.0
210
0.0
220
0.0
230
1.0
  0
LINE
  5
1FF
100
AcDbEntity
  8
0
 62
     7
 48
0.0125
100
AcDbLine
 10
769.7724
 20
-156.601196
 30
0.0
 11
770.2724
 21
-156.601196
 31
0.0
210
0.0
220
0.0
230
1.0
  0
LINE
  5
200
100
AcDbEntity
  8
0
 62
     7
 48
0.0125
100
AcDbLine
 10
769.7724
 20
-173.34436
 30
0.0
 11
770.2724
 21
-173.34436
 31
0.0
210
0.0
220
0.0
230
1.0
  0
LINE
  5
201
100
AcDbEntity
  8
0
 62
     7
 48
0.02179
100
AcDbLine
 10
770.2724
 20
-156.601196
 30
0.0
 11
770.2724
 21
-157.472778
 31
0.0
210
0.0
220
0.0
230
1.0
  0
LINE
  5
202
100
AcDbEntity
  8
0
 62
     7
 48
0.02179
100
AcDbLine
 10
770.2724
 20
-172.472778
 30
0.0
 11
770.2724
 21
-173.34436
 31
0.0
210
0.0
220
0.0
230
1.0
  0
LINE
  5
203
100
AcDbEntity
  8
0
 62
     7
 48
0.1125
100
AcDbLine
 10
765.7724
 20
-148.229614
 30
0.0
 11
770.2724
 21
-148.229614
 31
0.0
210
0.0
220
0.0
230
1.0
  0
LINE
  5
204
100
AcDbEntity
  8
0
 62
     7
 48
0.20929
100
AcDbLine
 10
770.2724
 20
-148.229614
 30
0.0
 11
770.2724
 21
-156.601196
 31
0.0
210
0.0
220
0.0
230
1.0
  0
LINE
  5
205
100
AcDbEntity
  8
0
 62
     7
 48
0.1125
100
AcDbLine
 10
765.7724
 20
-181.715942
 30
0.0
 11
770.2724
 21
-181.715942
 31
0.0
210
0.0
220
0.0
230
1.0
  0
LINE
  5
206
100
AcDbEntity
  8
0
 62
     7
 48
0.20929
100
AcDbLine
 10
770.2724
 20
-173.34436
 30
0.0
 11
770.2724
 21
-181.715942
 31
0.0
210
0.0
220
0.0
230
1.0
  0
LINE
  5
207
100
AcDbEntity
  8
0
 62
     7
 48
0.09866
100
AcDbLine
 10
775.2724
 20
-157.469238
 30
0.0
 11
775.2724
 21
-153.522827
 31
0.0
210
0.0
220
0.0
230
1.0
  0
LINE
  5
208
100
AcDbEntity
  8
0
 62
     7
 48
0.0604
100
AcDbLine
 10
775.2724
 20
-174.888794
 30
0.0
 11
775.2724
 21
-172.472778
 31
0.0
210
0.0
220
0.0
230
1.0
  0
LINE
  5
209
100
AcDbEntity
  8
0
 62
     7
 48
0.038348
100
AcDbLine
 10
775.2724
 20
-176.422729
 30
0.0
 11
775.2724
 21
-174.888794
 31
0.0
210
0.0
220
0.0
230
1.0
  0
LINE
  5
20A
100
AcDbEntity
  8
0
 62
     7
 48
0.297333
100
AcDbLine
 10
768.972412
 20
-159.026123
 30
0.0
 11
768.972412
 21
-170.919434
 31
0.0
210
0.0
220
0.0
230
1.0
  0
LINE
  5
20B
100
AcDbEntity
  8
0
 62
     7
 48
0.148669
100
AcDbLine
 10
768.972412
 20
-170.919434
 30
0.0
 11
768.972412
 21
-176.866211
 31
0.0
210
0.0
220
0.0
230
1.0
  0
LINE
  5
20C
100
AcDbEntity
  8
0
 62
     7
 48
0.148669
100
AcDbLine
 10
768.972412
 20
-153.079346
 30
0.0
 11
768.972412
 21
-159.026123
 31
0.0
210
0.0
220
0.0
230
1.0
  0
LINE
  5
20D
100
AcDbEntity
  8
0
 62
     7
 48
0.0375
100
AcDbLine
 10
764.2724
 20
-144.972778
 30
0.0
 11
765.7724
 21
-144.972778
 31
0.0
210
0.0
220
0.0
230
1.0
  0
LINE
  5
20E
100
AcDbEntity
  8
0
 62
     7
 48
0.0375
100
AcDbLine
 10
764.2724
 20
-184.972778
 30
0.0
 11
765.7724
 21
-184.972778
 31
0.0
210
0.0
220
0.0
230
1.0
  0
LINE
  5
20F
100
AcDbEntity
  8
0
 62
     7
 48
0.08
100
AcDbLine
 10
765.7724
 20
-176.866211
 30
0.0
 11
768.972412
 21
-176.866211
 31
0.0
210
0.0
220
0.0
230
1.0
  0
LINE
  5
210
100
AcDbEntity
  8
0
 62
     7
 48
0.08
100
AcDbLine
 10
765.7724
 20
-176.866211
 30
0.0
 11
768.972412
 21
-176.866211
 31
0.0
210
0.0
220
0.0
230
1.0
  0
LINE
  5
211
100
AcDbEntity
  8
0
 62
     7
 48
0.08
100
AcDbLine
 10
765.7724
 20
-153.079346
 30
0.0
 11
768.972412
 21
-153.079346
 31
0.0
210
0.0
220
0.0
230
1.0
  0
LINE
  5
212
100
AcDbEntity
  8
0
 62
     7
 48
0.08
100
AcDbLine
 10
765.7724
 20
-170.919434
 30
0.0
 11
768.972412
 21
-170.919434
 31
0.0
210
0.0
220
0.0
230
1.0
  0
LINE
  5
213
100
AcDbEntity
  8
0
 62
     7
 48
0.08
100
AcDbLine
 10
765.7724
 20
-159.026123
 30
0.0
 11
768.972412
 21
-159.026123
 31
0.0
210
0.0
220
0.0
230
1.0
  0
LINE
  5
214
100
AcDbEntity
  8
0
 62
     7
 48
0.2075
100
AcDbLine
 10
768.972412
 20
-172.472778
 30
0.0
 11
777.2724
 21
-172.472778
 31
0.0
210
0.0
220
0.0
230
1.0
  0
LINE
  5
215
100
AcDbEntity
  8
0
 62
     7
 48
0.2075
100
AcDbLine
 10
768.972412
 20
-157.472778
 30
0.0
 11
777.2724
 21
-157.472778
 31
0.0
210
0.0
220
0.0
230
1.0
  0
LINE
  5
216
100
AcDbEntity
  8
0
 62
     7
 48
0.375
100
AcDbLine
 10
777.2724
 20
-172.472778
 30
0.0
 11
777.2724
 21
-157.472778
 31
0.0
210
0.0
220
0.0
230
1.0
  0
LINE
  5
217
100
AcDbEntity
  8
0
 62
     7
 48
0.2075
100
AcDbLine
 10
768.972412
 20
-172.472778
 30
0.0
 11
777.2724
 21
-172.472778
 31
0.0
210
0.0
220
0.0
230
1.0
  0
LINE
  5
218
100
AcDbEntity
  8
0
 62
     7
 48
0.08674
100
AcDbLine
 10
769.7724
 20
-172.472778
 30
0.0
 11
769.7724
 21
-175.942383
 31
0.0
210
0.0
220
0.0
230
1.0
  0
LINE
  5
219
100
AcDbEntity
  8
0
 62
     7
 48
0.08674
100
AcDbLine
 10
769.7724
 20
-154.003174
 30
0.0
 11
769.7724
 21
-157.472778
 31
0.0
210
0.0
220
0.0
230
1.0
  0
LINE
  5
21A
100
AcDbEntity
  8
0
 62
     7
 48
0.02
100
AcDbLine
 10
768.972412
 20
-175.942383
 30
0.0
 11
769.7724
 21
-175.942383
 31
0.0
210
0.0
220
0.0
230
1.0
  0
LINE
  5
21B
100
AcDbEntity
  8
0
 62
     7
 48
0.02
100
AcDbLine
 10
768.972412
 20
-154.003174
 30
0.0
 11
769.7724
 21
-154.003174
 31
0.0
210
0.0
220
0.0
230
1.0
  0
LINE
  5
21C
100
AcDbEntity
  8
0
 62
     7
 48
0.125
100
AcDbLine
 10
770.2724
 20
-153.522827
 30
0.0
 11
775.2724
 21
-153.522827
 31
0.0
210
0.0
220
0.0
230
1.0
  0
LINE
  5
21D
100
AcDbEntity
  8
0
 62
     7
 48
0.125
100
AcDbLine
 10
770.2724
 20
-176.422729
 30
0.0
 11
775.2724
 21
-176.422729
 31
0.0
210
0.0
220
0.0
230
1.0
  0
CIRCLE
  5
21E
100
AcDbEntity
  8
0
 62
     7
100
AcDbCircle
 10
756.712402
 20
-164.972778
 30
0.0
 40
2.5
210
0.0
220
0.0
230
1.0
  0
LINE
  5
21F
100
AcDbEntity
  8
0
 62
     7
 48
0.05
100
AcDbLine
 10
742.5224
 20
-194.972778
 30
0.0
 11
742.5224
 21
-196.972778
 31
0.0
210
0.0
220
0.0
230
1.0
  0
LINE
  5
220
100
AcDbEntity
  8
0
 62
     7
 48
0.05
100
AcDbLine
 10
736.0224
 20
-194.972778
 30
0.0
 11
736.0224
 21
-196.972778
 31
0.0
210
0.0
220
0.0
230
1.0
  0
LINE
  5
221
100
AcDbEntity
  8
0
 62
     7
 48
0.1625
100
AcDbLine
 10
736.0224
 20
-196.972778
 30
0.0
 11
742.5224
 21
-196.972778
 31
0.0
210
0.0
220
0.0
230
1.0
  0
LINE
  5
222
100
AcDbEntity
  8
0
 62
     7
 48
0.1625
100
AcDbLine
 10
742.5224
 20
-194.972778
 30
0.0
 11
736.0224
 21
-194.972778
 31
0.0
210
0.0
220
0.0
230
1.0
  0
CIRCLE
  5
223
100
AcDbEntity
  8
0
 62
     7
100
AcDbCircle
 10
721.832397
 20
-164.972778
 30
0.0
 40
2.5
210
0.0
220
0.0
230
1.0
  0
LINE
  5
224
100
AcDbEntity
  8
0
 62
     7
 48
0.05
100
AcDbLine
 10
764.2724
 20
-192.972778
 30
0.0
 11
764.2724
 21
-194.972778
 31
0.0
210
0.0
220
0.0
230
1.0
  0
LINE
  5
225
100
AcDbEntity
  8
0
 62
     7
 48
0.05
100
AcDbLine
 10
714.2724
 20
-192.972778
 30
0.0
 11
714.2724
 21
-194.972778
 31
0.0
210
0.0
220
0.0
230
1.0
  0
ARC
  5
226
100
AcDbEntity
  8
0
 62
     7
100
AcDbCircle
 10
716.2724
 20
-141.972778
 30
0.0
 40
2.0
210
0.0
220
0.0
230
1.0
100
AcDbArc
 50
90.000003
 51
180.000005
  0
LINE
  5
227
100
AcDbEntity
  8
0
 62
     7
100
AcDbLine
 10
764.2724
 20
-141.972778
 30
0.0
 11
764.2724
 21
-192.972778
 31
0.0
210
0.0
220
0.0
230
1.0
  0
LINE
  5
228
100
AcDbEntity
  8
0
 62
     7
100
AcDbLine
 10
714.2724
 20
-141.972778
 30
0.0
 11
714.2724
 21
-192.972778
 31
0.0
210
0.0
220
0.0
230
1.0
  0
LINE
  5
229
100
AcDbEntity
  8
0
 62
     7
100
AcDbLine
 10
762.2724
 20
-139.972778
 30
0.0
 11
716.2724
 21
-139.972778
 31
0.0
210
0.0
220
0.0
230
1.0
  0
ARC
  5
22A
100
AcDbEntity
  8
0
 62
     7
100
AcDbCircle
 10
762.2724
 20
-141.972778
 30
0.0
 40
2.0
210
0.0
220
0.0
230
1.0
100
AcDbArc
 50
0.0
 51
90.000003
  0
LINE
  5
22B
100
AcDbEntity
  8
0
 62
     7
 48
0.49375
100
AcDbLine
 10
762.2724
 20
-194.972778
 30
0.0
 11
742.5224
 21
-194.972778
 31
0.0
210
0.0
220
0.0
230
1.0
  0
LINE
  5
22C
100
AcDbEntity
  8
0
 62
     7
 48
0.49375
100
AcDbLine
 10
762.2724
 20
-196.972778
 30
0.0
 11
742.5224
 21
-196.972778
 31
0.0
210
0.0
220
0.0
230
1.0
  0
LINE
  5
22D
100
AcDbEntity
  8
0
 62
     7
 48
0.05
100
AcDbLine
 10
762.2724
 20
-196.972778
 30
0.0
 11
762.2724
 21
-194.972778
 31
0.0
210
0.0
220
0.0
230
1.0
  0
LINE
  5
22E
100
AcDbEntity
  8
0
 62
     7
 48
0.05
100
AcDbLine
 10
764.2724
 20
-196.972778
 30
0.0
 11
764.2724
 21
-194.972778
 31
0.0
210
0.0
220
0.0
230
1.0
  0
LINE
  5
22F
100
AcDbEntity
  8
0
 62
     7
 48
0.05
100
AcDbLine
 10
762.2724
 20
-194.972778
 30
0.0
 11
764.2724
 21
-194.972778
 31
0.0
210
0.0
220
0.0
230
1.0
  0
LINE
  5
230
100
AcDbEntity
  8
0
 62
     7
 48
0.05
100
AcDbLine
 10
762.2724
 20
-196.972778
 30
0.0
 11
764.2724
 21
-196.972778
 31
0.0
210
0.0
220
0.0
230
1.0
  0
LINE
  5
231
100
AcDbEntity
  8
0
 62
     7
 48
0.49375
100
AcDbLine
 10
736.0224
 20
-196.972778
 30
0.0
 11
716.2724
 21
-196.972778
 31
0.0
210
0.0
220
0.0
230
1.0
  0
LINE
  5
232
100
AcDbEntity
  8
0
 62
     7
 48
0.49375
100
AcDbLine
 10
736.0224
 20
-194.972778
 30
0.0
 11
716.2724
 21
-194.972778
 31
0.0
210
0.0
220
0.0
230
1.0
  0
LINE
  5
233
100
AcDbEntity
  8
0
 62
     7
 48
0.05
100
AcDbLine
 10
716.2724
 20
-196.972778
 30
0.0
 11
716.2724
 21
-194.972778
 31
0.0
210
0.0
220
0.0
230
1.0
  0
LINE
  5
234
100
AcDbEntity
  8
0
 62
     7
 48
0.05
100
AcDbLine
 10
714.2724
 20
-196.972778
 30
0.0
 11
714.2724
 21
-194.972778
 31
0.0
210
0.0
220
0.0
230
1.0
  0
LINE
  5
235
100
AcDbEntity
  8
0
 62
     7
 48
0.05
100
AcDbLine
 10
714.2724
 20
-196.972778
 30
0.0
 11
716.2724
 21
-196.972778
 31
0.0
210
0.0
220
0.0
230
1.0
  0
LINE
  5
236
100
AcDbEntity
  8
0
 62
     7
 48
0.05
100
AcDbLine
 10
714.2724
 20
-194.972778
 30
0.0
 11
716.2724
 21
-194.972778
 31
0.0
210
0.0
220
0.0
230
1.0
  0
LINE
  5
237
100
AcDbEntity
  8
0
 62
     7
100
AcDbLine
 10
764.2724
 20
-139.972778
 30
0.0
 11
764.2724
 21
-189.972778
 31
0.0
210
0.0
220
0.0
230
1.0
  0
LINE
  5
238
100
AcDbEntity
  8
0
 62
     7
 48
0.049939
100
AcDbLine
 10
714.2724
 20
-141.970337
 30
0.0
 11
714.2724
 21
-139.972778
 31
0.0
210
0.0
220
0.0
230
1.0
  0
LINE
  5
239
100
AcDbEntity
  8
0
 62
     7
 48
0.04994
100
AcDbLine
 10
716.27002
 20
-139.972778
 30
0.0
 11
714.2724
 21
-139.972778
 31
0.0
210
0.0
220
0.0
230
1.0
  0
LINE
  5
23A
100
AcDbEntity
  8
0
 62
     7
 48
0.04994
100
AcDbLine
 10
764.2724
 20
-139.972778
 30
0.0
 11
762.27478
 21
-139.972778
 31
0.0
210
0.0
220
0.0
230
1.0
  0
ENDSEC
  0
SECTION
  2
OBJECTS
  0
DICTIONARY
  5
19
100
AcDbDictionary
  3
ACAD_GROUP
350
1A
  3
ACAD_MLINESTYLE
350
1B
  0
DICTIONARY
  5
1A
102
{ACAD_REACTORS
330
19
102
}
100
AcDbDictionary
  0
DICTIONARY
  5
1B
102
{ACAD_REACTORS
330
19
102
}
100
AcDbDictionary
  3
STANDARD
350
1C
  0
MLINESTYLE
  5
1C
102
{ACAD_REACTORS
330
1B
102
}
100
AcDbMlineStyle
  2
STANDARD
 70
     0
  3

 62
     0
 51
90.0
 52
90.0
 71
     2
 49
0.5
 62
   256
  6
BYLAYER
 49
-0.5
 62
   256
  6
BYLAYER
  0
ENDSEC
  0
EOF
