  0
SECTION
  2
HEADER
  9
$ACADVER
  1
AC1014
  9
$ACADMAINTVER
 70
     0
  9
$DWGCODEPAGE
  3
ANSI_1252
  9
$INSBASE
 10
0.0
 20
0.0
 30
0.0
  9
$EXTMIN
 10
0.0
 20
0.0
 30
0.0
  9
$EXTMAX
 10
1346.180298
 20
817.969849
 30
2.0
  9
$LIMMIN
 10
0.0
 20
0.0
  9
$LIMMAX
 10
420.0
 20
297.0
  9
$ORTHOMODE
 70
     0
  9
$REGENMODE
 70
     1
  9
$FILLMODE
 70
     1
  9
$QTEXTMODE
 70
     0
  9
$MIRRTEXT
 70
     1
  9
$DRAGMODE
 70
     2
  9
$LTSCALE
 40
1.0
  9
$OSMODE
 70
     0
  9
$ATTMODE
 70
     1
  9
$TEXTSIZE
 40
2.5
  9
$TRACEWID
 40
1.0
  9
$TEXTSTYLE
  7
STANDARD
  9
$CLAYER
  8
0
  9
$CELTYPE
  6
BYLAYER
  9
$CECOLOR
 62
   256
  9
$CELTSCALE
 40
1.0
  9
$DELOBJ
 70
     1
  9
$DISPSILH
 70
     0
  9
$DIMSCALE
 40
1.0
  9
$DIMASZ
 40
2.5
  9
$DIMEXO
 40
0.625
  9
$DIMDLI
 40
3.75
  9
$DIMRND
 40
0.0
  9
$DIMDLE
 40
0.0
  9
$DIMEXE
 40
1.25
  9
$DIMTP
 40
0.0
  9
$DIMTM
 40
0.0
  9
$DIMTXT
 40
2.5
  9
$DIMCEN
 40
2.5
  9
$DIMTSZ
 40
0.0
  9
$DIMTOL
 70
     0
  9
$DIMLIM
 70
     0
  9
$DIMTIH
 70
     0
  9
$DIMTOH
 70
     0
  9
$DIMSE1
 70
     0
  9
$DIMSE2
 70
     0
  9
$DIMTAD
 70
     1
  9
$DIMZIN
 70
     8
  9
$DIMBLK
  1

  9
$DIMASO
 70
     1
  9
$DIMSHO
 70
     1
  9
$DIMPOST
  1

  9
$DIMAPOST
  1

  9
$DIMALT
 70
     0
  9
$DIMALTD
 70
     3
  9
$DIMALTF
 40
0.03937
  9
$DIMLFAC
 40
1.0
  9
$DIMTOFL
 70
     1
  9
$DIMTVP
 40
0.0
  9
$DIMTIX
 70
     0
  9
$DIMSOXD
 70
     0
  9
$DIMSAH
 70
     0
  9
$DIMBLK1
  1

  9
$DIMBLK2
  1

  9
$DIMSTYLE
  2

  9
$DIMCLRD
 70
     0
  9
$DIMCLRE
 70
     0
  9
$DIMCLRT
 70
     0
  9
$DIMTFAC
 40
1.0
  9
$DIMGAP
 40
0.625
  9
$DIMJUST
 70
     0
  9
$DIMSD1
 70
     0
  9
$DIMSD2
 70
     0
  9
$DIMTOLJ
 70
     0
  9
$DIMTZIN
 70
     8
  9
$DIMALTZ
 70
     0
  9
$DIMALTTZ
 70
     0
  9
$DIMFIT
 70
     0
  9
$DIMUPT
 70
     0
  9
$DIMUNIT
 70
     2
  9
$DIMDEC
 70
     2
  9
$DIMTDEC
 70
     2
  9
$DIMALTU
 70
     2
  9
$DIMALTTD
 70
     3
  9
$DIMTXSTY
  7
STANDARD
  9
$DIMAUNIT
 70
     0
  9
$LUNITS
 70
     2
  9
$LUPREC
 70
     4
  9
$SKETCHINC
 40
1.0
  9
$FILLETRAD
 40
2.5
  9
$AUNITS
 70
     0
  9
$AUPREC
 70
     0
  9
$MENU
  1
.
  9
$ELEVATION
 40
0.0
  9
$PELEVATION
 40
0.0
  9
$THICKNESS
 40
0.0
  9
$LIMCHECK
 70
     0
  9
$BLIPMODE
 70
     1
  9
$CHAMFERA
 40
2.5
  9
$CHAMFERB
 40
2.5
  9
$CHAMFERC
 40
0.0
  9
$CHAMFERD
 40
0.0
  9
$SKPOLY
 70
     0
  9
$TDCREATE
 40
0.000000000
  9
$TDUPDATE
 40
0.000000000
  9
$TDINDWG
 40
0.0000000000
  9
$TDUSRTIMER
 40
0.0000000000
  9
$USRTIMER
 70
     1
  9
$ANGBASE
 50
0.0
  9
$ANGDIR
 70
     0
  9
$PDMODE
 70
     0
  9
$PDSIZE
 40
0.0
  9
$PLINEWID
 40
0.0
  9
$COORDS
 70
     0
  9
$SPLFRAME
 70
     0
  9
$SPLINETYPE
 70
     6
  9
$SPLINESEGS
 70
     8
  9
$ATTDIA
 70
     0
  9
$ATTREQ
 70
     1
  9
$HANDLING
 70
     1
  9
$HANDSEED
  5
3A8
  9
$SURFTAB1
 70
     6
  9
$SURFTAB2
 70
     6
  9
$SURFTYPE
 70
     6
  9
$SURFU
 70
     6
  9
$SURFV
 70
     6
  9
$UCSNAME
  2

  9
$UCSORG
 10
0.0
 20
0.0
 30
0.0
  9
$UCSXDIR
 10
1.0
 20
0.0
 30
0.0
  9
$UCSYDIR
 10
0.0
 20
1.0
 30
0.0
  9
$PUCSNAME
  2

  9
$PUCSORG
 10
0.0
 20
0.0
 30
0.0
  9
$PUCSXDIR
 10
1.0
 20
0.0
 30
0.0
  9
$PUCSYDIR
 10
0.0
 20
1.0
 30
0.0
  9
$USERI1
 70
     0
  9
$USERI2
 70
     0
  9
$USERI3
 70
     0
  9
$USERI4
 70
     0
  9
$USERI5
 70
     0
  9
$USERR1
 40
0.0
  9
$USERR2
 40
0.0
  9
$USERR3
 40
0.0
  9
$USERR4
 40
0.0
  9
$USERR5
 40
0.0
  9
$WORLDVIEW
 70
     1
  9
$SHADEDGE
 70
     3
  9
$SHADEDIF
 70
    70
  9
$TILEMODE
 70
     1
  9
$MAXACTVP
 70
    48
  9
$PINSBASE
 10
0.0
 20
0.0
 30
0.0
  9
$PLIMCHECK
 70
     0
  9
$PEXTMIN
 10
0.0
 20
0.0
 30
0.0
  9
$PEXTMAX
 10
1346.180298
 20
817.969849
 30
2.0
  9
$PLIMMIN
 10
0.0
 20
0.0
  9
$PLIMMAX
 10
420.0
 20
297.0
  9
$UNITMODE
 70
     0
  9
$VISRETAIN
 70
     0
  9
$PLINEGEN
 70
     0
  9
$PSLTSCALE
 70
     1
  9
$TREEDEPTH
 70
  3020
  9
$PICKSTYLE
 70
     1
  9
$CMLSTYLE
  2
STANDARD
  9
$CMLJUST
 70
     0
  9
$CMLSCALE
 40
20.0
  9
$PROXYGRAPHICS
 70
     1
  9
$MEASUREMENT
 70
     1
  0
ENDSEC
  0
SECTION
  2
CLASSES
  0
CLASS
  1
LWPOLYLINE
  2
AcDbPolyline
  3
"AutoCAD"
 90
        0
280
     0
281
     1
  0
CLASS
  1
IMAGE
  2
AcDbRasterImage
  3
ISM
 90
      127
280
     0
281
     1
  0
CLASS
  1
OLE2FRAME
  2
AcDbOle2Frame
  3
""
 90
        0
280
     0
281
     1
  0
CLASS
  1
HATCH
  2
AcDbHatch
  3
"ACAD_SEDONA"
 90
        0
280
     0
281
     1
  0
CLASS
  1
DICTIONARYVAR
  2
AcDbDictionaryVar
  3
"AutoCAD"
 90
        0
280
     0
281
     0
  0
CLASS
  1
RASTERVARIABLES
  2
AcDbRasterVariables
  3
ISM
 90
        0
280
     0
281
     0
  0
CLASS
  1
IMAGEDEF
  2
AcDbRasterImageDef
  3
ISM
 90
        0
280
     0
281
     0
  0
CLASS
  1
IMAGEDEF_REACTOR
  2
AcDbRasterImageDefReactor
  3
ISM
 90
        1
280
     0
281
     0
  0
CLASS
  1
IDBUFFER
  2
AcDbIdBuffer
  3
"Acad"
 90
        0
280
     0
281
     0
  0
CLASS
  1
SPATIAL_FILTER
  2
AcDbSpatialFilter
  3
"Acad"
 90
        0
280
     0
281
     0
  0
CLASS
  1
XRECORD
  2
AcDbXrecord
  3
"<Built In>"
 90
        0
280
     0
281
     0
  0
CLASS
  1
SORTENTSTABLE
  2
AcDbSortentsTable
  3
"AutoCAD"
 90
        0
280
     0
281
     0
  0
CLASS
  1
LAYER_INDEX
  2
AcDbLayerIndex
  3
"Acad"
 90
        0
280
     0
281
     0
  0
CLASS
  1
SPATIAL_INDEX
  2
AcDbSpatialIndex
  3
"Acad"
 90
        0
280
     0
281
     0
  0
CLASS
  1
OBJECT_PTR
  2
CAseDLPNTableRecord
  3
"ASE-LPNTableRecord"
 90
        1
280
     0
281
     0
  0
CLASS
  1
LAYOUT
  2
AcDbLayout
  3
"AutoCAD 2000"
 90
        0
280
     0
281
     0
  0
CLASS
  1
PLOTSETTINGS
  2
AcDbPlotSettings
  3
"AutoCAD 2000"
 90
        0
280
     0
281
     0
  0
CLASS
  1
ACDBDICTIONARYWDFLT
  2
AcDbDictionaryWithDefault
  3
"AutoCAD 2000"
 90
        0
280
     0
281
     0
  0
CLASS
  1
ACDBPLACEHOLDER
  2
AcDbPlaceHolder
  3
"AutoCAD 2000"
 90
        0
280
     0
281
     0
  0
CLASS
  1
VBA_PROJECT
  2
AcDbVbaProject
  3
"acadvba"
 90
        0
280
     0
281
     0
  0
CLASS
  1
WIPEOUT
  2
AcDbWipeout
  3
WipeOut|AutoCAD Express Tool|expresstools@autodesk.com
 90
      127
280
     0
281
     1
  0
CLASS
  1
WIPEOUTVARIABLES
  2
AcDbWipeoutVariables
  3
WipeOut|AutoCAD Express Tool|expresstools@autodesk.com
 90
        0
280
     0
281
     0
  0
CLASS
  1
RTEXT
  2
RText
  3
RText|AutoCAD Express Tool|expresstools@autodesk.com
 90
        0
280
     0
281
     1
  0
CLASS
  1
ARCALIGNEDTEXT
  2
AcDbArcAlignedText
  3
ATEXT|AutoCAD Express Tool|expresstools@autodesk.com
 90
        0
280
     0
281
     1
  0
ENDSEC
  0
SECTION
  2
TABLES
  0
TABLE
  2
VPORT
  5
7
100
AcDbSymbolTable
 70
     1
  0
VPORT
  5
15
100
AcDbSymbolTableRecord
100
AcDbViewportTableRecord
  2
*ACTIVE
 70
     0
 10
0.0
 20
0.0
 11
1.0
 21
1.0
 12
6.591288
 22
4.579184
 13
0.0
 23
0.0
 14
1.0
 24
1.0
 15
0.0
 25
0.0
 16
0.0
 26
0.0
 36
1.0
 17
0.0
 27
0.0
 37
0.0
 40
9.158369
 41
0.688564
 42
50.0
 43
0.0
 44
0.0
 50
0.0
 51
0.0
 71
     0
 72
   100
 73
     1
 74
     1
 75
     0
 76
     0
 77
     0
 78
     0
  0
ENDTAB
  0
TABLE
  2
LTYPE
  5
4
100
AcDbSymbolTable
 70
     3
  0
LTYPE
  5
11
100
AcDbSymbolTableRecord
100
AcDbLinetypeTableRecord
  2
BYBLOCK
 70
    64
  3

 72
    65
 73
     0
 40
0.0
  0
LTYPE
  5
12
100
AcDbSymbolTableRecord
100
AcDbLinetypeTableRecord
  2
BYLAYER
 70
    64
  3

 72
    65
 73
     0
 40
0.0
  0
LTYPE
  5
13
100
AcDbSymbolTableRecord
100
AcDbLinetypeTableRecord
  2
CONTINUOUS
 70
    64
  3
Solid line
 72
    65
 73
     0
 40
0.0
  0
ENDTAB
  0
TABLE
  2
LAYER
  5
2
100
AcDbSymbolTable
 70
     1
  0
LAYER
  5
14
100
AcDbSymbolTableRecord
100
AcDbLayerTableRecord
  2
0
 70
     0
 62
     7
  6
CONTINUOUS
  0
ENDTAB
  0
TABLE
  2
STYLE
  5
3
100
AcDbSymbolTable
 70
     1
  0
STYLE
  5
17
100
AcDbSymbolTableRecord
100
AcDbTextStyleTableRecord
  2
STANDARD
 70
     0
 40
0.0
 41
1.0
 50
0.0
 71
     0
 42
0.0
  3
txt
  4

  0
ENDTAB
  0
TABLE
  2
VIEW
  5
5
100
AcDbSymbolTable
 70
     0
  0
ENDTAB
  0
TABLE
  2
UCS
  5
6
100
AcDbSymbolTable
 70
     0
  0
ENDTAB
  0
TABLE
  2
APPID
  5
8
100
AcDbSymbolTable
 70
     1
  0
APPID
  5
16
100
AcDbSymbolTableRecord
100
AcDbRegAppTableRecord
  2
ACAD
 70
     0
  0
ENDTAB
  0
TABLE
  2
DIMSTYLE
  5
9
100
AcDbSymbolTable
 70
     1
  0
DIMSTYLE
105
18
100
AcDbSymbolTableRecord
100
AcDbDimStyleTableRecord
  2
STANDARD
 70
     0
  3

  4

  5

  6

  7

 40
1.0
 41
0.18
 42
0.0625
 43
0.38
 44
0.18
 45
0.0
 46
0.0
 47
0.0
 48
0.0
 71
     0
 72
     0
 73
     1
 74
     1
 75
     0
 76
     0
 77
     0
 78
     0
140
0.18
141
0.09
142
0.0
143
25.4
144
1.0
145
0.0
146
1.0
147
0.09
170
     0
171
     2
172
     0
173
     0
174
     0
175
     0
176
     0
177
     0
178
     0
270
     2
271
     4
272
     4
273
     2
274
     2
275
     0
280
     0
281
     0
282
     0
283
     1
284
     0
285
     0
286
     0
287
     3
288
     0
340
17
  0
ENDTAB
  0
TABLE
  2
BLOCK_RECORD
  5
1
100
AcDbSymbolTable
 70
     0
  0
BLOCK_RECORD
  5
A
100
AcDbSymbolTableRecord
100
AcDbBlockTableRecord
  2
*MODEL_SPACE
  0
BLOCK_RECORD
  5
B
100
AcDbSymbolTableRecord
100
AcDbBlockTableRecord
  2
*PAPER_SPACE
  0
ENDTAB
  0
ENDSEC
  0
SECTION
  2
BLOCKS
  0
BLOCK
  5
D
100
AcDbEntity
  8
0
100
AcDbBlockBegin
  2
*MODEL_SPACE
 70
     0
 10
0.0
 20
0.0
 30
0.0
  3
*MODEL_SPACE
  1

  0
ENDBLK
  5
E
100
AcDbEntity
  8
0
100
AcDbBlockEnd
  0
BLOCK
  5
F
100
AcDbEntity
 67
     1
  8
0
100
AcDbBlockBegin
  2
*PAPER_SPACE
 70
     0
 10
0.0
 20
0.0
 30
0.0
  3
*PAPER_SPACE
  1

  0
ENDBLK
  5
10
100
AcDbEntity
 67
     1
  8
0
100
AcDbBlockEnd
  0
ENDSEC
  0
SECTION
  2
ENTITIES
  0
VIEWPORT
  5
3A7
100
AcDbEntity
 67
     1
  8
0
 62
     0
 48
0.0
100
AcDbViewport
 10
0.0
 20
0.0
 30
0.0
 40
1000.0
 41
1000.0
 68
     1
 69
     1
1001
ACAD
1000
MVIEW
1002
{
1070
    16
1010
0.0
1020
0.0
1030
0.0
1010
0.0
1020
0.0
1030
1.0
1040
0.0
1040
1000.0
1040
0.0
1040
0.0
1040
50.0
1040
0.0
1040
0.0
1070
     0
1070
   100
1070
     1
1070
     1
1070
     0
1070
     0
1070
     0
1070
     0
1040
0.0
1040
0.0
1040
0.0
1040
1.0
1040
1.0
1040
1.0
1040
1.0
1070
     0
1002
{
1002
}
1002
}
  0
LINE
  5
1D
100
AcDbEntity
  8
0
 62
     7
100
AcDbLine
 10
314.770844
 20
299.969879
 30
0.0
 11
314.770844
 21
184.969879
 31
0.0
210
0.0
220
0.0
230
1.0
  0
LINE
  5
1E
100
AcDbEntity
  8
0
 62
     7
 48
0.08
100
AcDbLine
 10
314.770844
 20
189.669861
 30
0.0
 11
311.570831
 21
189.669861
 31
0.0
210
0.0
220
0.0
230
1.0
  0
LINE
  5
1F
100
AcDbEntity
  8
0
 62
     7
 48
0.08
100
AcDbLine
 10
314.770844
 20
199.969879
 30
0.0
 11
311.570831
 21
199.969879
 31
0.0
210
0.0
220
0.0
230
1.0
  0
LINE
  5
20
100
AcDbEntity
  8
0
 62
     7
 48
0.2575
100
AcDbLine
 10
311.570831
 20
189.669861
 30
0.0
 11
311.570831
 21
199.969879
 31
0.0
210
0.0
220
0.0
230
1.0
  0
LINE
  5
21
100
AcDbEntity
  8
0
 62
     7
 48
0.08
100
AcDbLine
 10
314.770844
 20
210.269867
 30
0.0
 11
311.570831
 21
210.269867
 31
0.0
210
0.0
220
0.0
230
1.0
  0
LINE
  5
22
100
AcDbEntity
  8
0
 62
     7
 48
0.2575
100
AcDbLine
 10
311.570831
 20
199.969879
 30
0.0
 11
311.570831
 21
210.269867
 31
0.0
210
0.0
220
0.0
230
1.0
  0
LINE
  5
23
100
AcDbEntity
  8
0
 62
     7
 48
0.08
100
AcDbLine
 10
314.770844
 20
214.669861
 30
0.0
 11
311.570831
 21
214.669861
 31
0.0
210
0.0
220
0.0
230
1.0
  0
LINE
  5
24
100
AcDbEntity
  8
0
 62
     7
 48
0.08
100
AcDbLine
 10
314.770844
 20
224.969879
 30
0.0
 11
311.570831
 21
224.969879
 31
0.0
210
0.0
220
0.0
230
1.0
  0
LINE
  5
25
100
AcDbEntity
  8
0
 62
     7
 48
0.2575
100
AcDbLine
 10
311.570831
 20
214.669861
 30
0.0
 11
311.570831
 21
224.969879
 31
0.0
210
0.0
220
0.0
230
1.0
  0
LINE
  5
26
100
AcDbEntity
  8
0
 62
     7
 48
0.08
100
AcDbLine
 10
314.770844
 20
235.269867
 30
0.0
 11
311.570831
 21
235.269867
 31
0.0
210
0.0
220
0.0
230
1.0
  0
LINE
  5
27
100
AcDbEntity
  8
0
 62
     7
 48
0.2575
100
AcDbLine
 10
311.570831
 20
224.969879
 30
0.0
 11
311.570831
 21
235.269867
 31
0.0
210
0.0
220
0.0
230
1.0
  0
LINE
  5
28
100
AcDbEntity
  8
0
 62
     7
 48
0.0375
100
AcDbLine
 10
316.270844
 20
184.969879
 30
0.0
 11
314.770844
 21
184.969879
 31
0.0
210
0.0
220
0.0
230
1.0
  0
LINE
  5
29
100
AcDbEntity
  8
0
 62
     7
 48
0.0375
100
AcDbLine
 10
316.270844
 20
299.969879
 30
0.0
 11
314.770844
 21
299.969879
 31
0.0
210
0.0
220
0.0
230
1.0
  0
LINE
  5
2A
100
AcDbEntity
  8
0
 62
     7
 48
0.2625
100
AcDbLine
 10
303.770844
 20
256.969879
 30
0.0
 11
303.770844
 21
246.469879
 31
0.0
210
0.0
220
0.0
230
1.0
  0
LINE
  5
2B
100
AcDbEntity
  8
0
 62
     7
 48
0.0875
100
AcDbLine
 10
303.770844
 20
246.469879
 30
0.0
 11
303.770844
 21
242.969879
 31
0.0
210
0.0
220
0.0
230
1.0
  0
LINE
  5
2C
100
AcDbEntity
  8
0
 62
     7
 48
0.2375
100
AcDbLine
 10
310.770844
 20
240.469879
 30
0.0
 11
310.770844
 21
249.969879
 31
0.0
210
0.0
220
0.0
230
1.0
  0
LINE
  5
2D
100
AcDbEntity
  8
0
 62
     7
 48
0.2375
100
AcDbLine
 10
310.770844
 20
249.969879
 30
0.0
 11
310.770844
 21
259.469879
 31
0.0
210
0.0
220
0.0
230
1.0
  0
LINE
  5
2E
100
AcDbEntity
  8
0
 62
     7
 48
0.1
100
AcDbLine
 10
314.770844
 20
240.469879
 30
0.0
 11
310.770844
 21
240.469879
 31
0.0
210
0.0
220
0.0
230
1.0
  0
LINE
  5
2F
100
AcDbEntity
  8
0
 62
     7
 48
0.1
100
AcDbLine
 10
314.770844
 20
249.969879
 30
0.0
 11
310.770844
 21
249.969879
 31
0.0
210
0.0
220
0.0
230
1.0
  0
LINE
  5
30
100
AcDbEntity
  8
0
 62
     7
 48
0.1
100
AcDbLine
 10
314.770844
 20
259.469879
 30
0.0
 11
310.770844
 21
259.469879
 31
0.0
210
0.0
220
0.0
230
1.0
  0
LINE
  5
31
100
AcDbEntity
  8
0
 62
     7
 48
0.175
100
AcDbLine
 10
310.770844
 20
256.969879
 30
0.0
 11
303.770844
 21
256.969879
 31
0.0
210
0.0
220
0.0
230
1.0
  0
LINE
  5
32
100
AcDbEntity
  8
0
 62
     7
 48
0.175
100
AcDbLine
 10
310.770844
 20
242.969879
 30
0.0
 11
303.770844
 21
242.969879
 31
0.0
210
0.0
220
0.0
230
1.0
  0
LINE
  5
33
100
AcDbEntity
  8
0
 62
     7
100
AcDbLine
 10
316.270844
 20
114.969872
 30
0.0
 11
316.270844
 21
786.969849
 31
0.0
210
0.0
220
0.0
230
1.0
  0
LINE
  5
34
100
AcDbEntity
  8
0
 62
     7
 48
0.0625
100
AcDbLine
 10
316.270844
 20
114.969872
 30
0.0
 11
318.770844
 21
114.969872
 31
0.0
210
0.0
220
0.0
230
1.0
  0
LINE
  5
35
100
AcDbEntity
  8
0
 62
     7
100
AcDbLine
 10
318.770844
 20
114.969872
 30
0.0
 11
318.770844
 21
786.969849
 31
0.0
210
0.0
220
0.0
230
1.0
  0
LINE
  5
36
100
AcDbEntity
  8
0
 62
     7
 48
0.0625
100
AcDbLine
 10
316.270844
 20
786.969849
 30
0.0
 11
318.770844
 21
786.969849
 31
0.0
210
0.0
220
0.0
230
1.0
  0
LINE
  5
37
100
AcDbEntity
  8
0
 62
     7
100
AcDbLine
 10
363.770844
 20
114.969872
 30
0.0
 11
363.770844
 21
786.969849
 31
0.0
210
0.0
220
0.0
230
1.0
  0
LINE
  5
38
100
AcDbEntity
  8
0
 62
     7
 48
0.0625
100
AcDbLine
 10
363.770844
 20
114.969872
 30
0.0
 11
366.270844
 21
114.969872
 31
0.0
210
0.0
220
0.0
230
1.0
  0
LINE
  5
39
100
AcDbEntity
  8
0
 62
     7
100
AcDbLine
 10
366.270844
 20
114.969872
 30
0.0
 11
366.270844
 21
786.969849
 31
0.0
210
0.0
220
0.0
230
1.0
  0
LINE
  5
3A
100
AcDbEntity
  8
0
 62
     7
 48
0.0625
100
AcDbLine
 10
363.770844
 20
786.969849
 30
0.0
 11
366.270844
 21
786.969849
 31
0.0
210
0.0
220
0.0
230
1.0
  0
LINE
  5
3B
100
AcDbEntity
  8
0
 62
     7
100
AcDbLine
 10
318.770844
 20
114.969872
 30
0.0
 11
363.770844
 21
114.969872
 31
0.0
210
0.0
220
0.0
230
1.0
  0
LINE
  5
3C
100
AcDbEntity
  8
0
 62
     7
100
AcDbLine
 10
318.770844
 20
114.969872
 30
0.0
 11
318.770844
 21
786.969849
 31
0.0
210
0.0
220
0.0
230
1.0
  0
LINE
  5
3D
100
AcDbEntity
  8
0
 62
     7
 48
0.36875
100
AcDbLine
 10
344.520844
 20
48.719872
 30
0.0
 11
344.520844
 21
33.969872
 31
0.0
210
0.0
220
0.0
230
1.0
  0
LINE
  5
3E
100
AcDbEntity
  8
0
 62
     7
 48
0.36875
100
AcDbLine
 10
338.020844
 20
33.969872
 30
0.0
 11
338.020844
 21
48.719872
 31
0.0
210
0.0
220
0.0
230
1.0
  0
ARC
  5
3F
100
AcDbEntity
  8
0
 62
     7
100
AcDbCircle
 10
341.270844
 20
48.719872
 30
0.0
 40
3.25
210
0.0
220
0.0
230
1.0
100
AcDbArc
 50
360.0
 51
180.000005
  0
LINE
  5
40
100
AcDbEntity
  8
0
 62
     7
 48
0.05
100
AcDbLine
 10
366.270844
 20
61.969872
 30
0.0
 11
366.270844
 21
59.969872
 31
0.0
210
0.0
220
0.0
230
1.0
  0
LINE
  5
41
100
AcDbEntity
  8
0
 62
     7
 48
0.05
100
AcDbLine
 10
316.270844
 20
61.969872
 30
0.0
 11
316.270844
 21
59.969872
 31
0.0
210
0.0
220
0.0
230
1.0
  0
LINE
  5
42
100
AcDbEntity
  8
0
 62
     7
 48
0.05
100
AcDbLine
 10
316.270844
 20
61.969872
 30
0.0
 11
316.270844
 21
63.969872
 31
0.0
210
0.0
220
0.0
230
1.0
  0
LINE
  5
43
100
AcDbEntity
  8
0
 62
     7
 48
0.05
100
AcDbLine
 10
318.270844
 20
61.969872
 30
0.0
 11
316.270844
 21
61.969872
 31
0.0
210
0.0
220
0.0
230
1.0
  0
LINE
  5
44
100
AcDbEntity
  8
0
 62
     7
100
AcDbLine
 10
364.270844
 20
61.969872
 30
0.0
 11
318.270844
 21
61.969872
 31
0.0
210
0.0
220
0.0
230
1.0
  0
LINE
  5
45
100
AcDbEntity
  8
0
 62
     7
 48
0.05
100
AcDbLine
 10
366.270844
 20
61.969872
 30
0.0
 11
364.270844
 21
61.969872
 31
0.0
210
0.0
220
0.0
230
1.0
  0
LINE
  5
46
100
AcDbEntity
  8
0
 62
     7
100
AcDbLine
 10
364.270844
 20
63.969872
 30
0.0
 11
318.270844
 21
63.969872
 31
0.0
210
0.0
220
0.0
230
1.0
  0
LINE
  5
47
100
AcDbEntity
  8
0
 62
     7
 48
0.05
100
AcDbLine
 10
366.270844
 20
61.969872
 30
0.0
 11
366.270844
 21
63.969872
 31
0.0
210
0.0
220
0.0
230
1.0
  0
LINE
  5
48
100
AcDbEntity
  8
0
 62
     7
 48
0.49375
100
AcDbLine
 10
364.270844
 20
33.969872
 30
0.0
 11
344.520844
 21
33.969872
 31
0.0
210
0.0
220
0.0
230
1.0
  0
LINE
  5
49
100
AcDbEntity
  8
0
 62
     7
100
AcDbLine
 10
366.270844
 20
59.969872
 30
0.0
 11
366.270844
 21
35.969872
 31
0.0
210
0.0
220
0.0
230
1.0
  0
ARC
  5
4A
100
AcDbEntity
  8
0
 62
     7
100
AcDbCircle
 10
364.270844
 20
35.969872
 30
0.0
 40
2.0
210
0.0
220
0.0
230
1.0
100
AcDbArc
 50
269.999997
 51
360.0
  0
LINE
  5
4B
100
AcDbEntity
  8
0
 62
     7
 48
0.49375
100
AcDbLine
 10
338.020844
 20
33.969872
 30
0.0
 11
318.270844
 21
33.969872
 31
0.0
210
0.0
220
0.0
230
1.0
  0
LINE
  5
4C
100
AcDbEntity
  8
0
 62
     7
100
AcDbLine
 10
316.270844
 20
59.969872
 30
0.0
 11
316.270844
 21
35.969872
 31
0.0
210
0.0
220
0.0
230
1.0
  0
ARC
  5
4D
100
AcDbEntity
  8
0
 62
     7
100
AcDbCircle
 10
318.270844
 20
35.969872
 30
0.0
 40
2.0
210
0.0
220
0.0
230
1.0
100
AcDbArc
 50
180.000005
 51
269.999997
  0
LINE
  5
4E
100
AcDbEntity
  8
0
 62
     7
 48
0.36875
100
AcDbLine
 10
338.020844
 20
803.219849
 30
0.0
 11
338.020844
 21
817.969849
 31
0.0
210
0.0
220
0.0
230
1.0
  0
LINE
  5
4F
100
AcDbEntity
  8
0
 62
     7
 48
0.36875
100
AcDbLine
 10
344.520844
 20
817.969849
 30
0.0
 11
344.520844
 21
803.219849
 31
0.0
210
0.0
220
0.0
230
1.0
  0
ARC
  5
50
100
AcDbEntity
  8
0
 62
     7
100
AcDbCircle
 10
341.270844
 20
803.219849
 30
0.0
 40
3.25
210
0.0
220
0.0
230
1.0
100
AcDbArc
 50
179.999995
 51
0.0
  0
LINE
  5
51
100
AcDbEntity
  8
0
 62
     7
 48
0.05
100
AcDbLine
 10
316.270844
 20
789.969849
 30
0.0
 11
316.270844
 21
791.969849
 31
0.0
210
0.0
220
0.0
230
1.0
  0
LINE
  5
52
100
AcDbEntity
  8
0
 62
     7
 48
0.05
100
AcDbLine
 10
366.270844
 20
789.969849
 30
0.0
 11
366.270844
 21
791.969849
 31
0.0
210
0.0
220
0.0
230
1.0
  0
LINE
  5
53
100
AcDbEntity
  8
0
 62
     7
 48
0.05
100
AcDbLine
 10
364.270844
 20
787.969849
 30
0.0
 11
366.270844
 21
787.969849
 31
0.0
210
0.0
220
0.0
230
1.0
  0
LINE
  5
54
100
AcDbEntity
  8
0
 62
     7
 48
0.05
100
AcDbLine
 10
366.270844
 20
789.969849
 30
0.0
 11
366.270844
 21
787.969849
 31
0.0
210
0.0
220
0.0
230
1.0
  0
LINE
  5
55
100
AcDbEntity
  8
0
 62
     7
 48
0.05
100
AcDbLine
 10
364.270844
 20
789.969849
 30
0.0
 11
366.270844
 21
789.969849
 31
0.0
210
0.0
220
0.0
230
1.0
  0
LINE
  5
56
100
AcDbEntity
  8
0
 62
     7
100
AcDbLine
 10
318.270844
 20
789.969849
 30
0.0
 11
364.270844
 21
789.969849
 31
0.0
210
0.0
220
0.0
230
1.0
  0
LINE
  5
57
100
AcDbEntity
  8
0
 62
     7
 48
0.05
100
AcDbLine
 10
316.270844
 20
789.969849
 30
0.0
 11
318.270844
 21
789.969849
 31
0.0
210
0.0
220
0.0
230
1.0
  0
LINE
  5
58
100
AcDbEntity
  8
0
 62
     7
100
AcDbLine
 10
318.270844
 20
787.969849
 30
0.0
 11
364.270844
 21
787.969849
 31
0.0
210
0.0
220
0.0
230
1.0
  0
LINE
  5
59
100
AcDbEntity
  8
0
 62
     7
 48
0.05
100
AcDbLine
 10
316.270844
 20
787.969849
 30
0.0
 11
318.270844
 21
787.969849
 31
0.0
210
0.0
220
0.0
230
1.0
  0
LINE
  5
5A
100
AcDbEntity
  8
0
 62
     7
 48
0.05
100
AcDbLine
 10
316.270844
 20
789.969849
 30
0.0
 11
316.270844
 21
787.969849
 31
0.0
210
0.0
220
0.0
230
1.0
  0
LINE
  5
5B
100
AcDbEntity
  8
0
 62
     7
 48
0.49375
100
AcDbLine
 10
318.270844
 20
817.969849
 30
0.0
 11
338.020844
 21
817.969849
 31
0.0
210
0.0
220
0.0
230
1.0
  0
LINE
  5
5C
100
AcDbEntity
  8
0
 62
     7
100
AcDbLine
 10
316.270844
 20
791.969849
 30
0.0
 11
316.270844
 21
815.969849
 31
0.0
210
0.0
220
0.0
230
1.0
  0
ARC
  5
5D
100
AcDbEntity
  8
0
 62
     7
100
AcDbCircle
 10
318.270844
 20
815.969849
 30
0.0
 40
2.0
210
0.0
220
0.0
230
1.0
100
AcDbArc
 50
90.000003
 51
180.000005
  0
LINE
  5
5E
100
AcDbEntity
  8
0
 62
     7
 48
0.49375
100
AcDbLine
 10
344.520844
 20
817.969849
 30
0.0
 11
364.270844
 21
817.969849
 31
0.0
210
0.0
220
0.0
230
1.0
  0
LINE
  5
5F
100
AcDbEntity
  8
0
 62
     7
100
AcDbLine
 10
366.270844
 20
791.969849
 30
0.0
 11
366.270844
 21
815.969849
 31
0.0
210
0.0
220
0.0
230
1.0
  0
ARC
  5
60
100
AcDbEntity
  8
0
 62
     7
100
AcDbCircle
 10
364.270844
 20
815.969849
 30
0.0
 40
2.0
210
0.0
220
0.0
230
1.0
100
AcDbArc
 50
0.0
 51
90.000003
  0
LINE
  5
61
100
AcDbEntity
  8
0
 62
     7
 48
0.36875
100
AcDbLine
 10
75.020844
 20
86.719872
 30
0.0
 11
60.270844
 21
86.719872
 31
0.0
210
0.0
220
0.0
230
1.0
  0
LINE
  5
62
100
AcDbEntity
  8
0
 62
     7
 48
0.36875
100
AcDbLine
 10
60.270844
 20
93.219872
 30
0.0
 11
75.020844
 21
93.219872
 31
0.0
210
0.0
220
0.0
230
1.0
  0
ARC
  5
63
100
AcDbEntity
  8
0
 62
     7
100
AcDbCircle
 10
75.020844
 20
89.969872
 30
0.0
 40
3.25
210
0.0
220
0.0
230
1.0
100
AcDbArc
 50
269.999997
 51
90.000003
  0
LINE
  5
64
100
AcDbEntity
  8
0
 62
     7
 48
0.05
100
AcDbLine
 10
88.270844
 20
64.969872
 30
0.0
 11
86.270844
 21
64.969872
 31
0.0
210
0.0
220
0.0
230
1.0
  0
LINE
  5
65
100
AcDbEntity
  8
0
 62
     7
 48
0.05
100
AcDbLine
 10
88.270844
 20
114.969872
 30
0.0
 11
86.270844
 21
114.969872
 31
0.0
210
0.0
220
0.0
230
1.0
  0
LINE
  5
66
100
AcDbEntity
  8
0
 62
     7
 48
0.05
100
AcDbLine
 10
88.270844
 20
114.969872
 30
0.0
 11
90.270844
 21
114.969872
 31
0.0
210
0.0
220
0.0
230
1.0
  0
LINE
  5
67
100
AcDbEntity
  8
0
 62
     7
 48
0.05
100
AcDbLine
 10
88.270844
 20
112.969872
 30
0.0
 11
88.270844
 21
114.969872
 31
0.0
210
0.0
220
0.0
230
1.0
  0
LINE
  5
68
100
AcDbEntity
  8
0
 62
     7
100
AcDbLine
 10
88.270844
 20
66.969872
 30
0.0
 11
88.270844
 21
112.969872
 31
0.0
210
0.0
220
0.0
230
1.0
  0
LINE
  5
69
100
AcDbEntity
  8
0
 62
     7
 48
0.05
100
AcDbLine
 10
88.270844
 20
64.969872
 30
0.0
 11
88.270844
 21
66.969872
 31
0.0
210
0.0
220
0.0
230
1.0
  0
LINE
  5
6A
100
AcDbEntity
  8
0
 62
     7
100
AcDbLine
 10
90.270844
 20
66.969872
 30
0.0
 11
90.270844
 21
112.969872
 31
0.0
210
0.0
220
0.0
230
1.0
  0
LINE
  5
6B
100
AcDbEntity
  8
0
 62
     7
 48
0.05
100
AcDbLine
 10
88.270844
 20
64.969872
 30
0.0
 11
90.270844
 21
64.969872
 31
0.0
210
0.0
220
0.0
230
1.0
  0
LINE
  5
6C
100
AcDbEntity
  8
0
 62
     7
 48
0.49375
100
AcDbLine
 10
60.270844
 20
66.969872
 30
0.0
 11
60.270844
 21
86.719872
 31
0.0
210
0.0
220
0.0
230
1.0
  0
LINE
  5
6D
100
AcDbEntity
  8
0
 62
     7
100
AcDbLine
 10
86.270844
 20
64.969872
 30
0.0
 11
62.270844
 21
64.969872
 31
0.0
210
0.0
220
0.0
230
1.0
  0
ARC
  5
6E
100
AcDbEntity
  8
0
 62
     7
100
AcDbCircle
 10
62.270844
 20
66.969872
 30
0.0
 40
2.0
210
0.0
220
0.0
230
1.0
100
AcDbArc
 50
180.000005
 51
269.999997
  0
LINE
  5
6F
100
AcDbEntity
  8
0
 62
     7
 48
0.49375
100
AcDbLine
 10
60.270844
 20
93.219872
 30
0.0
 11
60.270844
 21
112.969872
 31
0.0
210
0.0
220
0.0
230
1.0
  0
LINE
  5
70
100
AcDbEntity
  8
0
 62
     7
100
AcDbLine
 10
86.270844
 20
114.969872
 30
0.0
 11
62.270844
 21
114.969872
 31
0.0
210
0.0
220
0.0
230
1.0
  0
ARC
  5
71
100
AcDbEntity
  8
0
 62
     7
100
AcDbCircle
 10
62.270844
 20
112.969872
 30
0.0
 40
2.0
210
0.0
220
0.0
230
1.0
100
AcDbArc
 50
90.000003
 51
180.000005
  0
LINE
  5
72
100
AcDbEntity
  8
0
 62
     7
100
AcDbLine
 10
591.270874
 20
64.969872
 30
0.0
 11
91.270844
 21
64.969872
 31
0.0
210
0.0
220
0.0
230
1.0
  0
LINE
  5
73
100
AcDbEntity
  8
0
 62
     7
100
AcDbLine
 10
591.270874
 20
67.469872
 30
0.0
 11
91.270844
 21
67.469872
 31
0.0
210
0.0
220
0.0
230
1.0
  0
LINE
  5
74
100
AcDbEntity
  8
0
 62
     7
 48
0.0625
100
AcDbLine
 10
591.270874
 20
64.969872
 30
0.0
 11
591.270874
 21
67.469872
 31
0.0
210
0.0
220
0.0
230
1.0
  0
LINE
  5
75
100
AcDbEntity
  8
0
 62
     7
 48
0.0625
100
AcDbLine
 10
591.270874
 20
112.469872
 30
0.0
 11
591.270874
 21
114.969872
 31
0.0
210
0.0
220
0.0
230
1.0
  0
LINE
  5
76
100
AcDbEntity
  8
0
 62
     7
 48
0.0625
100
AcDbLine
 10
91.270844
 20
64.969872
 30
0.0
 11
91.270844
 21
67.469872
 31
0.0
210
0.0
220
0.0
230
1.0
  0
LINE
  5
77
100
AcDbEntity
  8
0
 62
     7
100
AcDbLine
 10
591.270874
 20
114.969872
 30
0.0
 11
91.270844
 21
114.969872
 31
0.0
210
0.0
220
0.0
230
1.0
  0
LINE
  5
78
100
AcDbEntity
  8
0
 62
     7
100
AcDbLine
 10
591.270874
 20
112.469872
 30
0.0
 11
91.270844
 21
112.469872
 31
0.0
210
0.0
220
0.0
230
1.0
  0
LINE
  5
79
100
AcDbEntity
  8
0
 62
     7
 48
0.0625
100
AcDbLine
 10
91.270844
 20
112.469872
 30
0.0
 11
91.270844
 21
114.969872
 31
0.0
210
0.0
220
0.0
230
1.0
  0
LINE
  5
7A
100
AcDbEntity
  8
0
 62
     7
100
AcDbLine
 10
91.270844
 20
67.469872
 30
0.0
 11
91.270844
 21
112.469872
 31
0.0
210
0.0
220
0.0
230
1.0
  0
LINE
  5
7B
100
AcDbEntity
  8
0
 62
     7
100
AcDbLine
 10
591.270874
 20
67.469872
 30
0.0
 11
91.270844
 21
67.469872
 31
0.0
210
0.0
220
0.0
230
1.0
  0
LINE
  5
7C
100
AcDbEntity
  8
0
 62
     7
 48
0.36875
100
AcDbLine
 10
607.520874
 20
93.219872
 30
0.0
 11
622.270874
 21
93.219872
 31
0.0
210
0.0
220
0.0
230
1.0
  0
LINE
  5
7D
100
AcDbEntity
  8
0
 62
     7
 48
0.36875
100
AcDbLine
 10
622.270874
 20
86.719872
 30
0.0
 11
607.520874
 21
86.719872
 31
0.0
210
0.0
220
0.0
230
1.0
  0
ARC
  5
7E
100
AcDbEntity
  8
0
 62
     7
100
AcDbCircle
 10
607.520874
 20
89.969872
 30
0.0
 40
3.25
210
0.0
220
0.0
230
1.0
100
AcDbArc
 50
90.000003
 51
269.999997
  0
LINE
  5
7F
100
AcDbEntity
  8
0
 62
     7
 48
0.05
100
AcDbLine
 10
594.270874
 20
114.969872
 30
0.0
 11
596.270874
 21
114.969872
 31
0.0
210
0.0
220
0.0
230
1.0
  0
LINE
  5
80
100
AcDbEntity
  8
0
 62
     7
 48
0.05
100
AcDbLine
 10
594.270874
 20
64.969872
 30
0.0
 11
596.270874
 21
64.969872
 31
0.0
210
0.0
220
0.0
230
1.0
  0
LINE
  5
81
100
AcDbEntity
  8
0
 62
     7
 48
0.05
100
AcDbLine
 10
592.270874
 20
66.969872
 30
0.0
 11
592.270874
 21
64.969872
 31
0.0
210
0.0
220
0.0
230
1.0
  0
LINE
  5
82
100
AcDbEntity
  8
0
 62
     7
 48
0.05
100
AcDbLine
 10
594.270874
 20
64.969872
 30
0.0
 11
592.270874
 21
64.969872
 31
0.0
210
0.0
220
0.0
230
1.0
  0
LINE
  5
83
100
AcDbEntity
  8
0
 62
     7
 48
0.05
100
AcDbLine
 10
594.270874
 20
66.969872
 30
0.0
 11
594.270874
 21
64.969872
 31
0.0
210
0.0
220
0.0
230
1.0
  0
LINE
  5
84
100
AcDbEntity
  8
0
 62
     7
100
AcDbLine
 10
594.270874
 20
112.969872
 30
0.0
 11
594.270874
 21
66.969872
 31
0.0
210
0.0
220
0.0
230
1.0
  0
LINE
  5
85
100
AcDbEntity
  8
0
 62
     7
 48
0.05
100
AcDbLine
 10
594.270874
 20
114.969872
 30
0.0
 11
594.270874
 21
112.969872
 31
0.0
210
0.0
220
0.0
230
1.0
  0
LINE
  5
86
100
AcDbEntity
  8
0
 62
     7
100
AcDbLine
 10
592.270874
 20
112.969872
 30
0.0
 11
592.270874
 21
66.969872
 31
0.0
210
0.0
220
0.0
230
1.0
  0
LINE
  5
87
100
AcDbEntity
  8
0
 62
     7
 48
0.05
100
AcDbLine
 10
592.270874
 20
114.969872
 30
0.0
 11
592.270874
 21
112.969872
 31
0.0
210
0.0
220
0.0
230
1.0
  0
LINE
  5
88
100
AcDbEntity
  8
0
 62
     7
 48
0.05
100
AcDbLine
 10
594.270874
 20
114.969872
 30
0.0
 11
592.270874
 21
114.969872
 31
0.0
210
0.0
220
0.0
230
1.0
  0
LINE
  5
89
100
AcDbEntity
  8
0
 62
     7
 48
0.49375
100
AcDbLine
 10
622.270874
 20
112.969872
 30
0.0
 11
622.270874
 21
93.219872
 31
0.0
210
0.0
220
0.0
230
1.0
  0
LINE
  5
8A
100
AcDbEntity
  8
0
 62
     7
100
AcDbLine
 10
596.270874
 20
114.969872
 30
0.0
 11
620.270874
 21
114.969872
 31
0.0
210
0.0
220
0.0
230
1.0
  0
ARC
  5
8B
100
AcDbEntity
  8
0
 62
     7
100
AcDbCircle
 10
620.270874
 20
112.969872
 30
0.0
 40
2.0
210
0.0
220
0.0
230
1.0
100
AcDbArc
 50
360.0
 51
90.000003
  0
LINE
  5
8C
100
AcDbEntity
  8
0
 62
     7
 48
0.49375
100
AcDbLine
 10
622.270874
 20
86.719872
 30
0.0
 11
622.270874
 21
66.969872
 31
0.0
210
0.0
220
0.0
230
1.0
  0
LINE
  5
8D
100
AcDbEntity
  8
0
 62
     7
100
AcDbLine
 10
596.270874
 20
64.969872
 30
0.0
 11
620.270874
 21
64.969872
 31
0.0
210
0.0
220
0.0
230
1.0
  0
ARC
  5
8E
100
AcDbEntity
  8
0
 62
     7
100
AcDbCircle
 10
620.270874
 20
66.969872
 30
0.0
 40
2.0
210
0.0
220
0.0
230
1.0
100
AcDbArc
 50
269.999997
 51
360.0
  0
LINE
  5
8F
100
AcDbEntity
  8
0
 62
     7
 48
0.2
100
AcDbLine
 10
276.570862
 20
202.469879
 30
0.0
 11
268.570862
 21
202.469879
 31
0.0
210
0.0
220
0.0
230
1.0
  0
LINE
  5
90
100
AcDbEntity
  8
0
 62
     7
 48
0.2
100
AcDbLine
 10
276.570862
 20
197.469879
 30
0.0
 11
268.570862
 21
197.469879
 31
0.0
210
0.0
220
0.0
230
1.0
  0
ARC
  5
91
100
AcDbEntity
  8
0
 62
     7
100
AcDbCircle
 10
268.570862
 20
180.469879
 30
0.0
 40
22.0
210
0.0
220
0.0
230
1.0
100
AcDbArc
 50
90.000003
 51
269.999997
  0
ARC
  5
92
100
AcDbEntity
  8
0
 62
     7
100
AcDbCircle
 10
268.570862
 20
180.469879
 30
0.0
 40
17.0
210
0.0
220
0.0
230
1.0
100
AcDbArc
 50
90.000003
 51
269.999997
  0
LINE
  5
93
100
AcDbEntity
  8
0
 62
     7
 48
0.205
100
AcDbLine
 10
276.770844
 20
158.469879
 30
0.0
 11
268.570862
 21
158.469879
 31
0.0
210
0.0
220
0.0
230
1.0
  0
LINE
  5
94
100
AcDbEntity
  8
0
 62
     7
 48
0.205
100
AcDbLine
 10
276.770844
 20
163.469879
 30
0.0
 11
268.570862
 21
163.469879
 31
0.0
210
0.0
220
0.0
230
1.0
  0
ARC
  5
95
100
AcDbEntity
  8
0
 62
     7
100
AcDbCircle
 10
276.770844
 20
140.969879
 30
0.0
 40
17.5
210
0.0
220
0.0
230
1.0
100
AcDbArc
 50
0.0
 51
90.000003
  0
ARC
  5
96
100
AcDbEntity
  8
0
 62
     7
100
AcDbCircle
 10
276.770844
 20
140.969879
 30
0.0
 40
22.5
210
0.0
220
0.0
230
1.0
100
AcDbArc
 50
0.0
 51
90.000003
  0
LINE
  5
97
100
AcDbEntity
  8
0
 62
     7
 48
0.15
100
AcDbLine
 10
294.270844
 20
134.969879
 30
0.0
 11
294.270844
 21
140.969879
 31
0.0
210
0.0
220
0.0
230
1.0
  0
LINE
  5
98
100
AcDbEntity
  8
0
 62
     7
 48
0.15
100
AcDbLine
 10
299.270844
 20
134.969879
 30
0.0
 11
299.270844
 21
140.969879
 31
0.0
210
0.0
220
0.0
230
1.0
  0
LINE
  5
99
100
AcDbEntity
  8
0
 62
     7
 48
0.183064
100
AcDbLine
 10
292.87085
 20
134.969879
 30
0.0
 11
300.19342
 21
134.969879
 31
0.0
210
0.0
220
0.0
230
1.0
  0
LINE
  5
9A
100
AcDbEntity
  8
0
 62
     7
 48
0.011935
100
AcDbLine
 10
300.19342
 20
134.969879
 30
0.0
 11
300.670837
 21
134.969879
 31
0.0
210
0.0
220
0.0
230
1.0
  0
LINE
  5
9B
100
AcDbEntity
  8
0
 62
     7
 48
0.106087
100
AcDbLine
 10
288.283813
 20
114.969872
 30
0.0
 11
292.527313
 21
114.969872
 31
0.0
210
0.0
220
0.0
230
1.0
  0
LINE
  5
9C
100
AcDbEntity
  8
0
 62
     7
 48
0.212177
100
AcDbLine
 10
292.527313
 20
114.969872
 30
0.0
 11
301.014374
 21
114.969872
 31
0.0
210
0.0
220
0.0
230
1.0
  0
LINE
  5
9D
100
AcDbEntity
  8
0
 62
     7
 48
0.106088
100
AcDbLine
 10
301.014374
 20
114.969872
 30
0.0
 11
305.257904
 21
114.969872
 31
0.0
210
0.0
220
0.0
230
1.0
  0
LINE
  5
9E
100
AcDbEntity
  8
0
 62
     7
 48
0.405
100
AcDbLine
 10
288.283813
 20
114.969872
 30
0.0
 11
288.283813
 21
131.169876
 31
0.0
210
0.0
220
0.0
230
1.0
  0
LINE
  5
9F
100
AcDbEntity
  8
0
 62
     7
 48
0.405
100
AcDbLine
 10
292.527313
 20
114.969872
 30
0.0
 11
292.527313
 21
131.169876
 31
0.0
210
0.0
220
0.0
230
1.0
  0
LINE
  5
A0
100
AcDbEntity
  8
0
 62
     7
 48
0.106087
100
AcDbLine
 10
288.283813
 20
131.169876
 30
0.0
 11
292.527313
 21
131.169876
 31
0.0
210
0.0
220
0.0
230
1.0
  0
LINE
  5
A1
100
AcDbEntity
  8
0
 62
     7
 48
0.405
100
AcDbLine
 10
301.014374
 20
114.969872
 30
0.0
 11
301.014374
 21
131.169876
 31
0.0
210
0.0
220
0.0
230
1.0
  0
LINE
  5
A2
100
AcDbEntity
  8
0
 62
     7
 48
0.212177
100
AcDbLine
 10
292.527313
 20
131.169876
 30
0.0
 11
301.014374
 21
131.169876
 31
0.0
210
0.0
220
0.0
230
1.0
  0
LINE
  5
A3
100
AcDbEntity
  8
0
 62
     7
 48
0.405
100
AcDbLine
 10
305.257904
 20
114.969872
 30
0.0
 11
305.257904
 21
131.169876
 31
0.0
210
0.0
220
0.0
230
1.0
  0
LINE
  5
A4
100
AcDbEntity
  8
0
 62
     7
 48
0.106088
100
AcDbLine
 10
301.014374
 20
131.169876
 30
0.0
 11
305.257904
 21
131.169876
 31
0.0
210
0.0
220
0.0
230
1.0
  0
LINE
  5
A5
100
AcDbEntity
  8
0
 62
     7
 48
0.017904
100
AcDbLine
 10
276.570862
 20
194.836014
 30
0.0
 11
276.570862
 21
194.119873
 31
0.0
210
0.0
220
0.0
230
1.0
  0
LINE
  5
A6
100
AcDbEntity
  8
0
 62
     7
 48
0.274596
100
AcDbLine
 10
276.570862
 20
205.81987
 30
0.0
 11
276.570862
 21
194.836014
 31
0.0
210
0.0
220
0.0
230
1.0
  0
LINE
  5
A7
100
AcDbEntity
  8
0
 62
     7
 48
0.42715
100
AcDbLine
 10
300.570862
 20
209.06987
 30
0.0
 11
300.570862
 21
191.983871
 31
0.0
210
0.0
220
0.0
230
1.0
  0
LINE
  5
A8
100
AcDbEntity
  8
0
 62
     7
 48
0.02785
100
AcDbLine
 10
300.570862
 20
191.983871
 30
0.0
 11
300.570862
 21
190.869873
 31
0.0
210
0.0
220
0.0
230
1.0
  0
LINE
  5
A9
100
AcDbEntity
  8
0
 62
     7
 48
0.352047
100
AcDbLine
 10
282.570862
 20
207.469879
 30
0.0
 11
282.570862
 21
193.388
 31
0.0
210
0.0
220
0.0
230
1.0
  0
LINE
  5
AA
100
AcDbEntity
  8
0
 62
     7
 48
0.022953
100
AcDbLine
 10
282.570862
 20
193.388
 30
0.0
 11
282.570862
 21
192.469879
 31
0.0
210
0.0
220
0.0
230
1.0
  0
LINE
  5
AB
100
AcDbEntity
  8
0
 62
     7
 48
0.352047
100
AcDbLine
 10
291.170837
 20
207.469879
 30
0.0
 11
291.170837
 21
193.388
 31
0.0
210
0.0
220
0.0
230
1.0
  0
LINE
  5
AC
100
AcDbEntity
  8
0
 62
     7
 48
0.022953
100
AcDbLine
 10
291.170837
 20
193.388
 30
0.0
 11
291.170837
 21
192.469879
 31
0.0
210
0.0
220
0.0
230
1.0
  0
LINE
  5
AD
100
AcDbEntity
  8
0
 62
     7
 48
0.02
100
AcDbLine
 10
303.670837
 20
131.969879
 30
0.0
 11
303.670837
 21
131.169876
 31
0.0
210
0.0
220
0.0
230
1.0
  0
ARC
  5
AE
100
AcDbEntity
  8
0
 62
     7
100
AcDbCircle
 10
300.670837
 20
131.969879
 30
0.0
 40
3.0
210
0.0
220
0.0
230
1.0
100
AcDbArc
 50
360.0
 51
90.000003
  0
LINE
  5
AF
100
AcDbEntity
  8
0
 62
     7
 48
0.02
100
AcDbLine
 10
289.87085
 20
131.969879
 30
0.0
 11
289.87085
 21
131.169876
 31
0.0
210
0.0
220
0.0
230
1.0
  0
ARC
  5
B0
100
AcDbEntity
  8
0
 62
     7
100
AcDbCircle
 10
292.87085
 20
131.969879
 30
0.0
 40
3.0
210
0.0
220
0.0
230
1.0
100
AcDbArc
 50
90.000003
 51
179.999995
  0
LINE
  5
B1
100
AcDbEntity
  8
0
 62
     7
 48
0.155569
100
AcDbLine
 10
276.570862
 20
205.81987
 30
0.0
 11
282.570862
 21
207.469879
 31
0.0
210
0.0
220
0.0
230
1.0
  0
LINE
  5
B2
100
AcDbEntity
  8
0
 62
     7
 48
0.155568
100
AcDbLine
 10
276.570862
 20
194.119873
 30
0.0
 11
282.570862
 21
192.469879
 31
0.0
210
0.0
220
0.0
230
1.0
  0
ARC
  5
B3
100
AcDbEntity
  8
0
 62
     7
100
AcDbCircle
 10
286.87085
 20
214.574036
 30
0.0
 40
8.304167
210
0.0
220
0.0
230
1.0
100
AcDbArc
 50
238.814371
 51
301.185624
  0
ARC
  5
B4
100
AcDbEntity
  8
0
 62
     7
100
AcDbCircle
 10
286.87085
 20
185.365707
 30
0.0
 40
8.304167
210
0.0
220
0.0
230
1.0
100
AcDbArc
 50
58.814376
 51
121.185629
  0
LINE
  5
B5
100
AcDbEntity
  8
0
 62
     7
 48
0.235001
100
AcDbLine
 10
300.570862
 20
207.469879
 30
0.0
 11
291.170837
 21
207.469879
 31
0.0
210
0.0
220
0.0
230
1.0
  0
LINE
  5
B6
100
AcDbEntity
  8
0
 62
     7
 48
0.235001
100
AcDbLine
 10
300.570862
 20
192.469879
 30
0.0
 11
291.170837
 21
192.469879
 31
0.0
210
0.0
220
0.0
230
1.0
  0
LINE
  5
B7
100
AcDbEntity
  8
0
 62
     7
 48
0.274999
100
AcDbLine
 10
311.570831
 20
209.06987
 30
0.0
 11
300.570862
 21
209.06987
 31
0.0
210
0.0
220
0.0
230
1.0
  0
LINE
  5
B8
100
AcDbEntity
  8
0
 62
     7
 48
0.274999
100
AcDbLine
 10
311.570831
 20
190.869873
 30
0.0
 11
300.570862
 21
190.869873
 31
0.0
210
0.0
220
0.0
230
1.0
  0
LINE
  5
B9
100
AcDbEntity
  8
0
 62
     7
 48
0.495
100
AcDbLine
 10
276.570862
 20
227.469879
 30
0.0
 11
256.770844
 21
227.469879
 31
0.0
210
0.0
220
0.0
230
1.0
  0
LINE
  5
BA
100
AcDbEntity
  8
0
 62
     7
 48
0.495
100
AcDbLine
 10
276.570862
 20
222.469879
 30
0.0
 11
256.770844
 21
222.469879
 31
0.0
210
0.0
220
0.0
230
1.0
  0
ARC
  5
BB
100
AcDbEntity
  8
0
 62
     7
100
AcDbCircle
 10
256.770844
 20
199.969879
 30
0.0
 40
27.5
210
0.0
220
0.0
230
1.0
100
AcDbArc
 50
90.000003
 51
180.000005
  0
ARC
  5
BC
100
AcDbEntity
  8
0
 62
     7
100
AcDbCircle
 10
256.770844
 20
199.969879
 30
0.0
 40
22.5
210
0.0
220
0.0
230
1.0
100
AcDbArc
 50
90.000003
 51
180.000005
  0
LINE
  5
BD
100
AcDbEntity
  8
0
 62
     7
100
AcDbLine
 10
229.270844
 20
199.969879
 30
0.0
 11
229.270844
 21
176.969879
 31
0.0
210
0.0
220
0.0
230
1.0
  0
LINE
  5
BE
100
AcDbEntity
  8
0
 62
     7
100
AcDbLine
 10
234.270844
 20
199.969879
 30
0.0
 11
234.270844
 21
176.969879
 31
0.0
210
0.0
220
0.0
230
1.0
  0
ARC
  5
BF
100
AcDbEntity
  8
0
 62
     7
100
AcDbCircle
 10
256.770844
 20
176.969879
 30
0.0
 40
27.5
210
0.0
220
0.0
230
1.0
100
AcDbArc
 50
180.000005
 51
269.999997
  0
ARC
  5
C0
100
AcDbEntity
  8
0
 62
     7
100
AcDbCircle
 10
256.770844
 20
176.969879
 30
0.0
 40
22.5
210
0.0
220
0.0
230
1.0
100
AcDbArc
 50
180.000005
 51
269.999997
  0
LINE
  5
C1
100
AcDbEntity
  8
0
 62
     7
 48
0.2
100
AcDbLine
 10
264.770844
 20
149.469879
 30
0.0
 11
256.770844
 21
149.469879
 31
0.0
210
0.0
220
0.0
230
1.0
  0
LINE
  5
C2
100
AcDbEntity
  8
0
 62
     7
 48
0.2
100
AcDbLine
 10
264.770844
 20
154.469879
 30
0.0
 11
256.770844
 21
154.469879
 31
0.0
210
0.0
220
0.0
230
1.0
  0
ARC
  5
C3
100
AcDbEntity
  8
0
 62
     7
100
AcDbCircle
 10
264.770844
 20
139.969879
 30
0.0
 40
9.5
210
0.0
220
0.0
230
1.0
100
AcDbArc
 50
0.0
 51
90.000003
  0
ARC
  5
C4
100
AcDbEntity
  8
0
 62
     7
100
AcDbCircle
 10
264.770844
 20
139.969879
 30
0.0
 40
14.5
210
0.0
220
0.0
230
1.0
100
AcDbArc
 50
0.0
 51
90.000003
  0
LINE
  5
C5
100
AcDbEntity
  8
0
 62
     7
 48
0.125
100
AcDbLine
 10
274.270844
 20
134.969879
 30
0.0
 11
274.270844
 21
139.969879
 31
0.0
210
0.0
220
0.0
230
1.0
  0
LINE
  5
C6
100
AcDbEntity
  8
0
 62
     7
 48
0.125
100
AcDbLine
 10
279.270844
 20
134.969879
 30
0.0
 11
279.270844
 21
139.969879
 31
0.0
210
0.0
220
0.0
230
1.0
  0
LINE
  5
C7
100
AcDbEntity
  8
0
 62
     7
 48
0.183064
100
AcDbLine
 10
272.87085
 20
134.969879
 30
0.0
 11
280.19342
 21
134.969879
 31
0.0
210
0.0
220
0.0
230
1.0
  0
LINE
  5
C8
100
AcDbEntity
  8
0
 62
     7
 48
0.011935
100
AcDbLine
 10
280.19342
 20
134.969879
 30
0.0
 11
280.670837
 21
134.969879
 31
0.0
210
0.0
220
0.0
230
1.0
  0
LINE
  5
C9
100
AcDbEntity
  8
0
 62
     7
 48
0.106087
100
AcDbLine
 10
268.283813
 20
114.969872
 30
0.0
 11
272.527313
 21
114.969872
 31
0.0
210
0.0
220
0.0
230
1.0
  0
LINE
  5
CA
100
AcDbEntity
  8
0
 62
     7
 48
0.212177
100
AcDbLine
 10
272.527313
 20
114.969872
 30
0.0
 11
281.014374
 21
114.969872
 31
0.0
210
0.0
220
0.0
230
1.0
  0
LINE
  5
CB
100
AcDbEntity
  8
0
 62
     7
 48
0.106087
100
AcDbLine
 10
281.014374
 20
114.969872
 30
0.0
 11
285.257874
 21
114.969872
 31
0.0
210
0.0
220
0.0
230
1.0
  0
LINE
  5
CC
100
AcDbEntity
  8
0
 62
     7
 48
0.405
100
AcDbLine
 10
268.283813
 20
114.969872
 30
0.0
 11
268.283813
 21
131.169876
 31
0.0
210
0.0
220
0.0
230
1.0
  0
LINE
  5
CD
100
AcDbEntity
  8
0
 62
     7
 48
0.405
100
AcDbLine
 10
272.527313
 20
114.969872
 30
0.0
 11
272.527313
 21
131.169876
 31
0.0
210
0.0
220
0.0
230
1.0
  0
LINE
  5
CE
100
AcDbEntity
  8
0
 62
     7
 48
0.106087
100
AcDbLine
 10
268.283813
 20
131.169876
 30
0.0
 11
272.527313
 21
131.169876
 31
0.0
210
0.0
220
0.0
230
1.0
  0
LINE
  5
CF
100
AcDbEntity
  8
0
 62
     7
 48
0.405
100
AcDbLine
 10
281.014374
 20
114.969872
 30
0.0
 11
281.014374
 21
131.169876
 31
0.0
210
0.0
220
0.0
230
1.0
  0
LINE
  5
D0
100
AcDbEntity
  8
0
 62
     7
 48
0.212177
100
AcDbLine
 10
272.527313
 20
131.169876
 30
0.0
 11
281.014374
 21
131.169876
 31
0.0
210
0.0
220
0.0
230
1.0
  0
LINE
  5
D1
100
AcDbEntity
  8
0
 62
     7
 48
0.405
100
AcDbLine
 10
285.257874
 20
114.969872
 30
0.0
 11
285.257874
 21
131.169876
 31
0.0
210
0.0
220
0.0
230
1.0
  0
LINE
  5
D2
100
AcDbEntity
  8
0
 62
     7
 48
0.106087
100
AcDbLine
 10
281.014374
 20
131.169876
 30
0.0
 11
285.257874
 21
131.169876
 31
0.0
210
0.0
220
0.0
230
1.0
  0
LINE
  5
D3
100
AcDbEntity
  8
0
 62
     7
 48
0.017904
100
AcDbLine
 10
276.570862
 20
219.836014
 30
0.0
 11
276.570862
 21
219.119873
 31
0.0
210
0.0
220
0.0
230
1.0
  0
LINE
  5
D4
100
AcDbEntity
  8
0
 62
     7
 48
0.274596
100
AcDbLine
 10
276.570862
 20
230.81987
 30
0.0
 11
276.570862
 21
219.836014
 31
0.0
210
0.0
220
0.0
230
1.0
  0
LINE
  5
D5
100
AcDbEntity
  8
0
 62
     7
 48
0.42715
100
AcDbLine
 10
300.570862
 20
234.06987
 30
0.0
 11
300.570862
 21
216.983871
 31
0.0
210
0.0
220
0.0
230
1.0
  0
LINE
  5
D6
100
AcDbEntity
  8
0
 62
     7
 48
0.02785
100
AcDbLine
 10
300.570862
 20
216.983871
 30
0.0
 11
300.570862
 21
215.869873
 31
0.0
210
0.0
220
0.0
230
1.0
  0
LINE
  5
D7
100
AcDbEntity
  8
0
 62
     7
 48
0.352047
100
AcDbLine
 10
282.570862
 20
232.469879
 30
0.0
 11
282.570862
 21
218.388
 31
0.0
210
0.0
220
0.0
230
1.0
  0
LINE
  5
D8
100
AcDbEntity
  8
0
 62
     7
 48
0.022953
100
AcDbLine
 10
282.570862
 20
218.388
 30
0.0
 11
282.570862
 21
217.469879
 31
0.0
210
0.0
220
0.0
230
1.0
  0
LINE
  5
D9
100
AcDbEntity
  8
0
 62
     7
 48
0.352047
100
AcDbLine
 10
291.170837
 20
232.469879
 30
0.0
 11
291.170837
 21
218.388
 31
0.0
210
0.0
220
0.0
230
1.0
  0
LINE
  5
DA
100
AcDbEntity
  8
0
 62
     7
 48
0.022953
100
AcDbLine
 10
291.170837
 20
218.388
 30
0.0
 11
291.170837
 21
217.469879
 31
0.0
210
0.0
220
0.0
230
1.0
  0
LINE
  5
DB
100
AcDbEntity
  8
0
 62
     7
 48
0.02
100
AcDbLine
 10
283.670837
 20
131.969879
 30
0.0
 11
283.670837
 21
131.169876
 31
0.0
210
0.0
220
0.0
230
1.0
  0
ARC
  5
DC
100
AcDbEntity
  8
0
 62
     7
100
AcDbCircle
 10
280.670837
 20
131.969879
 30
0.0
 40
3.0
210
0.0
220
0.0
230
1.0
100
AcDbArc
 50
360.0
 51
90.000003
  0
LINE
  5
DD
100
AcDbEntity
  8
0
 62
     7
 48
0.02
100
AcDbLine
 10
269.87085
 20
131.969879
 30
0.0
 11
269.87085
 21
131.169876
 31
0.0
210
0.0
220
0.0
230
1.0
  0
ARC
  5
DE
100
AcDbEntity
  8
0
 62
     7
100
AcDbCircle
 10
272.87085
 20
131.969879
 30
0.0
 40
3.0
210
0.0
220
0.0
230
1.0
100
AcDbArc
 50
90.000003
 51
179.999995
  0
LINE
  5
DF
100
AcDbEntity
  8
0
 62
     7
 48
0.155569
100
AcDbLine
 10
276.570862
 20
230.81987
 30
0.0
 11
282.570862
 21
232.469879
 31
0.0
210
0.0
220
0.0
230
1.0
  0
LINE
  5
E0
100
AcDbEntity
  8
0
 62
     7
 48
0.155568
100
AcDbLine
 10
276.570862
 20
219.119873
 30
0.0
 11
282.570862
 21
217.469879
 31
0.0
210
0.0
220
0.0
230
1.0
  0
ARC
  5
E1
100
AcDbEntity
  8
0
 62
     7
100
AcDbCircle
 10
286.87085
 20
239.574036
 30
0.0
 40
8.304167
210
0.0
220
0.0
230
1.0
100
AcDbArc
 50
238.814371
 51
301.185624
  0
ARC
  5
E2
100
AcDbEntity
  8
0
 62
     7
100
AcDbCircle
 10
286.87085
 20
210.365707
 30
0.0
 40
8.304167
210
0.0
220
0.0
230
1.0
100
AcDbArc
 50
58.814376
 51
121.185629
  0
LINE
  5
E3
100
AcDbEntity
  8
0
 62
     7
 48
0.235001
100
AcDbLine
 10
300.570862
 20
232.469879
 30
0.0
 11
291.170837
 21
232.469879
 31
0.0
210
0.0
220
0.0
230
1.0
  0
LINE
  5
E4
100
AcDbEntity
  8
0
 62
     7
 48
0.235001
100
AcDbLine
 10
300.570862
 20
217.469879
 30
0.0
 11
291.170837
 21
217.469879
 31
0.0
210
0.0
220
0.0
230
1.0
  0
LINE
  5
E5
100
AcDbEntity
  8
0
 62
     7
 48
0.274999
100
AcDbLine
 10
311.570831
 20
234.06987
 30
0.0
 11
300.570862
 21
234.06987
 31
0.0
210
0.0
220
0.0
230
1.0
  0
LINE
  5
E6
100
AcDbEntity
  8
0
 62
     7
 48
0.274999
100
AcDbLine
 10
311.570831
 20
215.869873
 30
0.0
 11
300.570862
 21
215.869873
 31
0.0
210
0.0
220
0.0
230
1.0
  0
LINE
  5
E7
100
AcDbEntity
  8
0
 62
     7
 48
0.025
100
AcDbLine
 10
91.270844
 20
114.969872
 30
0.0
 11
90.270844
 21
114.969872
 31
0.0
210
0.0
220
0.0
230
1.0
  0
LINE
  5
E8
100
AcDbEntity
  8
0
 62
     7
 48
0.025
100
AcDbLine
 10
91.270844
 20
64.969872
 30
0.0
 11
90.270844
 21
64.969872
 31
0.0
210
0.0
220
0.0
230
1.0
  0
LINE
  5
E9
100
AcDbEntity
  8
0
 62
     7
100
AcDbLine
 10
91.270844
 20
114.969872
 30
0.0
 11
91.270844
 21
64.969872
 31
0.0
210
0.0
220
0.0
230
1.0
  0
LINE
  5
EA
100
AcDbEntity
  8
0
 62
     7
100
AcDbLine
 10
90.270844
 20
114.969872
 30
0.0
 11
90.270844
 21
64.969872
 31
0.0
210
0.0
220
0.0
230
1.0
  0
LINE
  5
EB
100
AcDbEntity
  8
0
 62
     7
 48
0.025
100
AcDbLine
 10
592.270874
 20
114.969872
 30
0.0
 11
591.270874
 21
114.969872
 31
0.0
210
0.0
220
0.0
230
1.0
  0
LINE
  5
EC
100
AcDbEntity
  8
0
 62
     7
 48
0.025
100
AcDbLine
 10
592.270874
 20
64.969872
 30
0.0
 11
591.270874
 21
64.969872
 31
0.0
210
0.0
220
0.0
230
1.0
  0
LINE
  5
ED
100
AcDbEntity
  8
0
 62
     7
100
AcDbLine
 10
592.270874
 20
114.969872
 30
0.0
 11
592.270874
 21
64.969872
 31
0.0
210
0.0
220
0.0
230
1.0
  0
LINE
  5
EE
100
AcDbEntity
  8
0
 62
     7
100
AcDbLine
 10
591.270874
 20
114.969872
 30
0.0
 11
591.270874
 21
64.969872
 31
0.0
210
0.0
220
0.0
230
1.0
  0
LINE
  5
EF
100
AcDbEntity
  8
0
 62
     7
 48
0.025
100
AcDbLine
 10
366.270844
 20
63.969872
 30
0.0
 11
366.270844
 21
64.969872
 31
0.0
210
0.0
220
0.0
230
1.0
  0
LINE
  5
F0
100
AcDbEntity
  8
0
 62
     7
 48
0.025
100
AcDbLine
 10
316.270844
 20
63.969872
 30
0.0
 11
316.270844
 21
64.969872
 31
0.0
210
0.0
220
0.0
230
1.0
  0
LINE
  5
F1
100
AcDbEntity
  8
0
 62
     7
100
AcDbLine
 10
366.270844
 20
63.969872
 30
0.0
 11
316.270844
 21
63.969872
 31
0.0
210
0.0
220
0.0
230
1.0
  0
LINE
  5
F2
100
AcDbEntity
  8
0
 62
     7
100
AcDbLine
 10
366.270844
 20
64.969872
 30
0.0
 11
316.270844
 21
64.969872
 31
0.0
210
0.0
220
0.0
230
1.0
  0
LINE
  5
F3
100
AcDbEntity
  8
0
 62
     7
 48
0.025
100
AcDbLine
 10
366.270844
 20
786.969849
 30
0.0
 11
366.270844
 21
787.969849
 31
0.0
210
0.0
220
0.0
230
1.0
  0
LINE
  5
F4
100
AcDbEntity
  8
0
 62
     7
 48
0.025
100
AcDbLine
 10
316.270844
 20
786.969849
 30
0.0
 11
316.270844
 21
787.969849
 31
0.0
210
0.0
220
0.0
230
1.0
  0
LINE
  5
F5
100
AcDbEntity
  8
0
 62
     7
100
AcDbLine
 10
366.270844
 20
786.969849
 30
0.0
 11
316.270844
 21
786.969849
 31
0.0
210
0.0
220
0.0
230
1.0
  0
LINE
  5
F6
100
AcDbEntity
  8
0
 62
     7
100
AcDbLine
 10
366.270844
 20
787.969849
 30
0.0
 11
316.270844
 21
787.969849
 31
0.0
210
0.0
220
0.0
230
1.0
  0
LINE
  5
F7
100
AcDbEntity
  8
0
 62
     7
100
AcDbLine
 10
-18.444702
 20
299.969879
 30
0.0
 11
21.555298
 21
299.969879
 31
0.0
210
0.0
220
0.0
230
1.0
  0
LINE
  5
F8
100
AcDbEntity
  8
0
 62
     7
100
AcDbLine
 10
-18.444702
 20
184.969879
 30
0.0
 11
-18.444702
 21
299.969879
 31
0.0
210
0.0
220
0.0
230
1.0
  0
LINE
  5
F9
100
AcDbEntity
  8
0
 62
     7
 48
0.437499
100
AcDbLine
 10
-0.944746
 20
184.969879
 30
0.0
 11
-18.444702
 21
184.969879
 31
0.0
210
0.0
220
0.0
230
1.0
  0
LINE
  5
FA
100
AcDbEntity
  8
0
 62
     7
 48
0.437501
100
AcDbLine
 10
21.555298
 20
184.969879
 30
0.0
 11
4.055254
 21
184.969879
 31
0.0
210
0.0
220
0.0
230
1.0
  0
LINE
  5
FB
100
AcDbEntity
  8
0
 62
     7
100
AcDbLine
 10
21.555298
 20
299.969879
 30
0.0
 11
21.555298
 21
184.969879
 31
0.0
210
0.0
220
0.0
230
1.0
  0
CIRCLE
  5
FC
100
AcDbEntity
  8
0
 62
     7
100
AcDbCircle
 10
-13.494702
 20
294.419861
 30
0.0
 40
2.25
210
0.0
220
0.0
230
1.0
  0
CIRCLE
  5
FD
100
AcDbEntity
  8
0
 62
     7
100
AcDbCircle
 10
16.605297
 20
294.419861
 30
0.0
 40
2.25
210
0.0
220
0.0
230
1.0
  0
CIRCLE
  5
FE
100
AcDbEntity
  8
0
 62
     7
100
AcDbCircle
 10
16.605297
 20
242.469879
 30
0.0
 40
2.25
210
0.0
220
0.0
230
1.0
  0
CIRCLE
  5
FF
100
AcDbEntity
  8
0
 62
     7
100
AcDbCircle
 10
-13.494702
 20
242.469879
 30
0.0
 40
2.25
210
0.0
220
0.0
230
1.0
  0
CIRCLE
  5
100
100
AcDbEntity
  8
0
 62
     7
100
AcDbCircle
 10
16.605297
 20
190.519867
 30
0.0
 40
2.25
210
0.0
220
0.0
230
1.0
  0
CIRCLE
  5
101
100
AcDbEntity
  8
0
 62
     7
100
AcDbCircle
 10
-13.494702
 20
190.519867
 30
0.0
 40
2.25
210
0.0
220
0.0
230
1.0
  0
LINE
  5
102
100
AcDbEntity
  8
0
 62
     7
 48
0.086167
100
AcDbLine
 10
-4.391411
 20
189.669861
 30
0.0
 11
-0.944742
 21
189.669861
 31
0.0
210
0.0
220
0.0
230
1.0
  0
LINE
  5
103
100
AcDbEntity
  8
0
 62
     7
 48
0.086169
100
AcDbLine
 10
4.055258
 20
189.669861
 30
0.0
 11
7.502007
 21
189.669861
 31
0.0
210
0.0
220
0.0
230
1.0
  0
LINE
  5
104
100
AcDbEntity
  8
0
 62
     7
 48
0.297336
100
AcDbLine
 10
-10.338118
 20
199.969879
 30
0.0
 11
-4.391411
 21
189.669861
 31
0.0
210
0.0
220
0.0
230
1.0
  0
LINE
  5
105
100
AcDbEntity
  8
0
 62
     7
 48
0.297336
100
AcDbLine
 10
7.502007
 20
189.669861
 30
0.0
 11
13.448715
 21
199.969879
 31
0.0
210
0.0
220
0.0
230
1.0
  0
LINE
  5
106
100
AcDbEntity
  8
0
 62
     7
 48
0.297335
100
AcDbLine
 10
-4.391411
 20
210.269867
 30
0.0
 11
-10.338118
 21
199.969879
 31
0.0
210
0.0
220
0.0
230
1.0
  0
LINE
  5
107
100
AcDbEntity
  8
0
 62
     7
 48
0.297335
100
AcDbLine
 10
13.448715
 20
199.969879
 30
0.0
 11
7.502007
 21
210.269867
 31
0.0
210
0.0
220
0.0
230
1.0
  0
LINE
  5
108
100
AcDbEntity
  8
0
 62
     7
 48
0.086169
100
AcDbLine
 10
7.502007
 20
210.269867
 30
0.0
 11
4.055244
 21
210.269867
 31
0.0
210
0.0
220
0.0
230
1.0
  0
LINE
  5
109
100
AcDbEntity
  8
0
 62
     7
 48
0.086166
100
AcDbLine
 10
-0.944756
 20
210.269867
 30
0.0
 11
-4.391411
 21
210.269867
 31
0.0
210
0.0
220
0.0
230
1.0
  0
LINE
  5
10A
100
AcDbEntity
  8
0
 62
     7
 48
0.086166
100
AcDbLine
 10
-4.391411
 20
214.669861
 30
0.0
 11
-0.944754
 21
214.669861
 31
0.0
210
0.0
220
0.0
230
1.0
  0
LINE
  5
10B
100
AcDbEntity
  8
0
 62
     7
 48
0.086169
100
AcDbLine
 10
4.055246
 20
214.669861
 30
0.0
 11
7.502007
 21
214.669861
 31
0.0
210
0.0
220
0.0
230
1.0
  0
LINE
  5
10C
100
AcDbEntity
  8
0
 62
     7
 48
0.297336
100
AcDbLine
 10
-10.338118
 20
224.969879
 30
0.0
 11
-4.391411
 21
214.669861
 31
0.0
210
0.0
220
0.0
230
1.0
  0
LINE
  5
10D
100
AcDbEntity
  8
0
 62
     7
 48
0.297336
100
AcDbLine
 10
7.502007
 20
214.669861
 30
0.0
 11
13.448715
 21
224.969879
 31
0.0
210
0.0
220
0.0
230
1.0
  0
LINE
  5
10E
100
AcDbEntity
  8
0
 62
     7
 48
0.297335
100
AcDbLine
 10
-4.391411
 20
235.269867
 30
0.0
 11
-10.338118
 21
224.969879
 31
0.0
210
0.0
220
0.0
230
1.0
  0
LINE
  5
10F
100
AcDbEntity
  8
0
 62
     7
 48
0.297335
100
AcDbLine
 10
13.448715
 20
224.969879
 30
0.0
 11
7.502007
 21
235.269867
 31
0.0
210
0.0
220
0.0
230
1.0
  0
LINE
  5
110
100
AcDbEntity
  8
0
 62
     7
 48
0.297335
100
AcDbLine
 10
7.502007
 20
235.269867
 30
0.0
 11
-4.391411
 21
235.269867
 31
0.0
210
0.0
220
0.0
230
1.0
  0
CIRCLE
  5
111
100
AcDbEntity
  8
0
 62
     7
100
AcDbCircle
 10
1.555298
 20
249.969879
 30
0.0
 40
5.9
210
0.0
220
0.0
230
1.0
  0
CIRCLE
  5
112
100
AcDbEntity
  8
0
 62
     7
100
AcDbCircle
 10
1.555298
 20
249.969879
 30
0.0
 40
7.0
210
0.0
220
0.0
230
1.0
  0
LINE
  5
113
100
AcDbEntity
  8
0
 62
     7
 48
0.015486
100
AcDbLine
 10
5.009619
 20
254.75293
 30
0.0
 11
4.699913
 21
254.216492
 31
0.0
210
0.0
220
0.0
230
1.0
  0
LINE
  5
114
100
AcDbEntity
  8
0
 62
     7
 48
0.015486
100
AcDbLine
 10
3.660683
 20
254.816498
 30
0.0
 11
3.970388
 21
255.352936
 31
0.0
210
0.0
220
0.0
230
1.0
  0
ARC
  5
115
100
AcDbEntity
  8
0
 62
     7
100
AcDbCircle
 10
4.180298
 20
254.51651
 30
0.0
 40
0.6
210
0.0
220
0.0
230
1.0
100
AcDbArc
 50
149.999997
 51
329.999999
  0
CIRCLE
  5
116
100
AcDbEntity
  8
0
 62
     7
100
AcDbCircle
 10
3.355297
 20
253.087555
 30
0.0
 40
0.4
210
0.0
220
0.0
230
1.0
  0
CIRCLE
  5
117
100
AcDbEntity
  8
0
 62
     7
100
AcDbCircle
 10
1.555298
 20
249.969879
 30
0.0
 40
0.4
210
0.0
220
0.0
230
1.0
  0
CIRCLE
  5
118
100
AcDbEntity
  8
0
 62
     7
100
AcDbCircle
 10
5.115089
 20
250.506409
 30
0.0
 40
0.4
210
0.0
220
0.0
230
1.0
  0
CIRCLE
  5
119
100
AcDbEntity
  8
0
 62
     7
100
AcDbCircle
 10
4.194284
 20
247.52124
 30
0.0
 40
0.4
210
0.0
220
0.0
230
1.0
  0
CIRCLE
  5
11A
100
AcDbEntity
  8
0
 62
     7
100
AcDbCircle
 10
1.28627
 20
246.379944
 30
0.0
 40
0.4
210
0.0
220
0.0
230
1.0
  0
CIRCLE
  5
11B
100
AcDbEntity
  8
0
 62
     7
100
AcDbCircle
 10
-1.419161
 20
247.941925
 30
0.0
 40
0.4
210
0.0
220
0.0
230
1.0
  0
CIRCLE
  5
11C
100
AcDbEntity
  8
0
 62
     7
100
AcDbCircle
 10
-1.884764
 20
251.030975
 30
0.0
 40
0.4
210
0.0
220
0.0
230
1.0
  0
CIRCLE
  5
11D
100
AcDbEntity
  8
0
 62
     7
100
AcDbCircle
 10
0.24007
 20
253.321014
 30
0.0
 40
0.4
210
0.0
220
0.0
230
1.0
  0
LINE
  5
11E
100
AcDbEntity
  8
0
 62
     7
 48
0.274241
100
AcDbLine
 10
7.040125
 20
240.469879
 30
0.0
 11
12.524952
 21
249.969879
 31
0.0
210
0.0
220
0.0
230
1.0
  0
LINE
  5
11F
100
AcDbEntity
  8
0
 62
     7
 48
0.274241
100
AcDbLine
 10
12.524952
 20
249.969879
 30
0.0
 11
7.040125
 21
259.469879
 31
0.0
210
0.0
220
0.0
230
1.0
  0
LINE
  5
120
100
AcDbEntity
  8
0
 62
     7
 48
0.274241
100
AcDbLine
 10
7.040125
 20
259.469879
 30
0.0
 11
-3.929529
 21
259.469879
 31
0.0
210
0.0
220
0.0
230
1.0
  0
LINE
  5
121
100
AcDbEntity
  8
0
 62
     7
 48
0.274241
100
AcDbLine
 10
-3.929529
 20
259.469879
 30
0.0
 11
-9.414357
 21
249.969879
 31
0.0
210
0.0
220
0.0
230
1.0
  0
LINE
  5
122
100
AcDbEntity
  8
0
 62
     7
 48
0.274241
100
AcDbLine
 10
-9.414357
 20
249.969879
 30
0.0
 11
-3.929529
 21
240.469879
 31
0.0
210
0.0
220
0.0
230
1.0
  0
LINE
  5
123
100
AcDbEntity
  8
0
 62
     7
 48
0.274241
100
AcDbLine
 10
-3.929529
 20
240.469879
 30
0.0
 11
7.040125
 21
240.469879
 31
0.0
210
0.0
220
0.0
230
1.0
  0
LINE
  5
124
100
AcDbEntity
  8
0
 62
     7
100
AcDbLine
 10
-23.444702
 20
114.969872
 30
0.0
 11
-23.444702
 21
786.969849
 31
0.0
210
0.0
220
0.0
230
1.0
  0
LINE
  5
125
100
AcDbEntity
  8
0
 62
     7
100
AcDbLine
 10
26.555298
 20
114.969872
 30
0.0
 11
26.555298
 21
786.969849
 31
0.0
210
0.0
220
0.0
230
1.0
  0
LINE
  5
126
100
AcDbEntity
  8
0
 62
     7
100
AcDbLine
 10
-23.444702
 20
786.969849
 30
0.0
 11
26.555298
 21
786.969849
 31
0.0
210
0.0
220
0.0
230
1.0
  0
ARC
  5
127
100
AcDbEntity
  8
0
 62
     7
100
AcDbCircle
 10
-26.444702
 20
59.969872
 30
0.0
 40
4.0
210
0.0
220
0.0
230
1.0
100
AcDbArc
 50
90.000003
 51
180.000005
  0
ARC
  5
128
100
AcDbEntity
  8
0
 62
     7
100
AcDbCircle
 10
-26.444702
 20
59.969872
 30
0.0
 40
2.0
210
0.0
220
0.0
230
1.0
100
AcDbArc
 50
90.000003
 51
180.000005
  0
LINE
  5
129
100
AcDbEntity
  8
0
 62
     7
 48
0.05
100
AcDbLine
 10
26.555298
 20
61.969872
 30
0.0
 11
24.555298
 21
61.969872
 31
0.0
210
0.0
220
0.0
230
1.0
  0
LINE
  5
12A
100
AcDbEntity
  8
0
 62
     7
 48
0.05
100
AcDbLine
 10
26.555298
 20
61.969872
 30
0.0
 11
26.555298
 21
63.969872
 31
0.0
210
0.0
220
0.0
230
1.0
  0
LINE
  5
12B
100
AcDbEntity
  8
0
 62
     7
100
AcDbLine
 10
24.555298
 20
61.969872
 30
0.0
 11
-26.444702
 21
61.969872
 31
0.0
210
0.0
220
0.0
230
1.0
  0
LINE
  5
12C
100
AcDbEntity
  8
0
 62
     7
100
AcDbLine
 10
24.555298
 20
63.969872
 30
0.0
 11
-26.444702
 21
63.969872
 31
0.0
210
0.0
220
0.0
230
1.0
  0
LINE
  5
12D
100
AcDbEntity
  8
0
 62
     7
 48
0.05
100
AcDbLine
 10
-30.444702
 20
33.969872
 30
0.0
 11
-28.444702
 21
33.969872
 31
0.0
210
0.0
220
0.0
230
1.0
  0
LINE
  5
12E
100
AcDbEntity
  8
0
 62
     7
100
AcDbLine
 10
-28.444702
 20
59.969872
 30
0.0
 11
-28.444702
 21
35.969872
 31
0.0
210
0.0
220
0.0
230
1.0
  0
LINE
  5
12F
100
AcDbEntity
  8
0
 62
     7
100
AcDbLine
 10
-30.444702
 20
59.969872
 30
0.0
 11
-30.444702
 21
35.969872
 31
0.0
210
0.0
220
0.0
230
1.0
  0
LINE
  5
130
100
AcDbEntity
  8
0
 62
     7
 48
0.05
100
AcDbLine
 10
-30.444702
 20
35.969872
 30
0.0
 11
-30.444702
 21
33.969872
 31
0.0
210
0.0
220
0.0
230
1.0
  0
LINE
  5
131
100
AcDbEntity
  8
0
 62
     7
 48
0.05
100
AcDbLine
 10
-28.444702
 20
35.969872
 30
0.0
 11
-28.444702
 21
33.969872
 31
0.0
210
0.0
220
0.0
230
1.0
  0
ARC
  5
132
100
AcDbEntity
  8
0
 62
     7
100
AcDbCircle
 10
-26.444702
 20
791.969849
 30
0.0
 40
4.0
210
0.0
220
0.0
230
1.0
100
AcDbArc
 50
180.000005
 51
269.999997
  0
ARC
  5
133
100
AcDbEntity
  8
0
 62
     7
100
AcDbCircle
 10
-26.444702
 20
791.969849
 30
0.0
 40
2.0
210
0.0
220
0.0
230
1.0
100
AcDbArc
 50
180.000005
 51
269.999997
  0
LINE
  5
134
100
AcDbEntity
  8
0
 62
     7
100
AcDbLine
 10
24.555298
 20
789.969849
 30
0.0
 11
-26.444702
 21
789.969849
 31
0.0
210
0.0
220
0.0
230
1.0
  0
LINE
  5
135
100
AcDbEntity
  8
0
 62
     7
 48
0.05
100
AcDbLine
 10
24.555298
 20
789.969849
 30
0.0
 11
26.555298
 21
789.969849
 31
0.0
210
0.0
220
0.0
230
1.0
  0
LINE
  5
136
100
AcDbEntity
  8
0
 62
     7
100
AcDbLine
 10
24.555298
 20
787.969849
 30
0.0
 11
-26.444702
 21
787.969849
 31
0.0
210
0.0
220
0.0
230
1.0
  0
LINE
  5
137
100
AcDbEntity
  8
0
 62
     7
 48
0.05
100
AcDbLine
 10
24.555298
 20
787.969849
 30
0.0
 11
26.555298
 21
787.969849
 31
0.0
210
0.0
220
0.0
230
1.0
  0
LINE
  5
138
100
AcDbEntity
  8
0
 62
     7
 48
0.05
100
AcDbLine
 10
26.555298
 20
789.969849
 30
0.0
 11
26.555298
 21
787.969849
 31
0.0
210
0.0
220
0.0
230
1.0
  0
LINE
  5
139
100
AcDbEntity
  8
0
 62
     7
 48
0.05
100
AcDbLine
 10
-30.444702
 20
817.969849
 30
0.0
 11
-28.444702
 21
817.969849
 31
0.0
210
0.0
220
0.0
230
1.0
  0
LINE
  5
13A
100
AcDbEntity
  8
0
 62
     7
100
AcDbLine
 10
-28.444702
 20
791.969849
 30
0.0
 11
-28.444702
 21
815.969849
 31
0.0
210
0.0
220
0.0
230
1.0
  0
LINE
  5
13B
100
AcDbEntity
  8
0
 62
     7
100
AcDbLine
 10
-30.444702
 20
791.969849
 30
0.0
 11
-30.444702
 21
815.969849
 31
0.0
210
0.0
220
0.0
230
1.0
  0
LINE
  5
13C
100
AcDbEntity
  8
0
 62
     7
 48
0.05
100
AcDbLine
 10
-28.444702
 20
817.969849
 30
0.0
 11
-28.444702
 21
815.969849
 31
0.0
210
0.0
220
0.0
230
1.0
  0
LINE
  5
13D
100
AcDbEntity
  8
0
 62
     7
 48
0.05
100
AcDbLine
 10
-30.444702
 20
817.969849
 30
0.0
 11
-30.444702
 21
815.969849
 31
0.0
210
0.0
220
0.0
230
1.0
  0
CIRCLE
  5
13E
100
AcDbEntity
  8
0
 62
     7
100
AcDbCircle
 10
1.555298
 20
72.529877
 30
0.0
 40
2.5
210
0.0
220
0.0
230
1.0
  0
LINE
  5
13F
100
AcDbEntity
  8
0
 62
     7
 48
0.05
100
AcDbLine
 10
-28.444702
 20
86.719872
 30
0.0
 11
-30.444702
 21
86.719872
 31
0.0
210
0.0
220
0.0
230
1.0
  0
LINE
  5
140
100
AcDbEntity
  8
0
 62
     7
 48
0.05
100
AcDbLine
 10
-28.444702
 20
93.219872
 30
0.0
 11
-30.444702
 21
93.219872
 31
0.0
210
0.0
220
0.0
230
1.0
  0
LINE
  5
141
100
AcDbEntity
  8
0
 62
     7
 48
0.1625
100
AcDbLine
 10
-30.444702
 20
93.219872
 30
0.0
 11
-30.444702
 21
86.719872
 31
0.0
210
0.0
220
0.0
230
1.0
  0
LINE
  5
142
100
AcDbEntity
  8
0
 62
     7
 48
0.1625
100
AcDbLine
 10
-28.444702
 20
86.719872
 30
0.0
 11
-28.444702
 21
93.219872
 31
0.0
210
0.0
220
0.0
230
1.0
  0
CIRCLE
  5
143
100
AcDbEntity
  8
0
 62
     7
100
AcDbCircle
 10
1.555298
 20
107.409874
 30
0.0
 40
2.5
210
0.0
220
0.0
230
1.0
  0
LINE
  5
144
100
AcDbEntity
  8
0
 62
     7
 48
0.05
100
AcDbLine
 10
-26.444702
 20
64.969872
 30
0.0
 11
-28.444702
 21
64.969872
 31
0.0
210
0.0
220
0.0
230
1.0
  0
LINE
  5
145
100
AcDbEntity
  8
0
 62
     7
 48
0.05
100
AcDbLine
 10
-26.444702
 20
114.969872
 30
0.0
 11
-28.444702
 21
114.969872
 31
0.0
210
0.0
220
0.0
230
1.0
  0
ARC
  5
146
100
AcDbEntity
  8
0
 62
     7
100
AcDbCircle
 10
24.555298
 20
112.969872
 30
0.0
 40
2.0
210
0.0
220
0.0
230
1.0
100
AcDbArc
 50
0.0
 51
90.000003
  0
LINE
  5
147
100
AcDbEntity
  8
0
 62
     7
100
AcDbLine
 10
24.555298
 20
64.969872
 30
0.0
 11
-26.444702
 21
64.969872
 31
0.0
210
0.0
220
0.0
230
1.0
  0
LINE
  5
148
100
AcDbEntity
  8
0
 62
     7
100
AcDbLine
 10
24.555298
 20
114.969872
 30
0.0
 11
-26.444702
 21
114.969872
 31
0.0
210
0.0
220
0.0
230
1.0
  0
LINE
  5
149
100
AcDbEntity
  8
0
 62
     7
100
AcDbLine
 10
26.555298
 20
66.969872
 30
0.0
 11
26.555298
 21
112.969872
 31
0.0
210
0.0
220
0.0
230
1.0
  0
ARC
  5
14A
100
AcDbEntity
  8
0
 62
     7
100
AcDbCircle
 10
24.555298
 20
66.969872
 30
0.0
 40
2.0
210
0.0
220
0.0
230
1.0
100
AcDbArc
 50
269.999997
 51
360.0
  0
LINE
  5
14B
100
AcDbEntity
  8
0
 62
     7
 48
0.49375
100
AcDbLine
 10
-28.444702
 20
66.969872
 30
0.0
 11
-28.444702
 21
86.719872
 31
0.0
210
0.0
220
0.0
230
1.0
  0
LINE
  5
14C
100
AcDbEntity
  8
0
 62
     7
 48
0.49375
100
AcDbLine
 10
-30.444702
 20
66.969872
 30
0.0
 11
-30.444702
 21
86.719872
 31
0.0
210
0.0
220
0.0
230
1.0
  0
LINE
  5
14D
100
AcDbEntity
  8
0
 62
     7
 48
0.05
100
AcDbLine
 10
-30.444702
 20
64.969872
 30
0.0
 11
-28.444702
 21
64.969872
 31
0.0
210
0.0
220
0.0
230
1.0
  0
LINE
  5
14E
100
AcDbEntity
  8
0
 62
     7
 48
0.05
100
AcDbLine
 10
-28.444702
 20
66.969872
 30
0.0
 11
-28.444702
 21
64.969872
 31
0.0
210
0.0
220
0.0
230
1.0
  0
LINE
  5
14F
100
AcDbEntity
  8
0
 62
     7
 48
0.05
100
AcDbLine
 10
-30.444702
 20
66.969872
 30
0.0
 11
-30.444702
 21
64.969872
 31
0.0
210
0.0
220
0.0
230
1.0
  0
LINE
  5
150
100
AcDbEntity
  8
0
 62
     7
 48
0.49375
100
AcDbLine
 10
-30.444702
 20
93.219872
 30
0.0
 11
-30.444702
 21
112.969872
 31
0.0
210
0.0
220
0.0
230
1.0
  0
LINE
  5
151
100
AcDbEntity
  8
0
 62
     7
 48
0.49375
100
AcDbLine
 10
-28.444702
 20
93.219872
 30
0.0
 11
-28.444702
 21
112.969872
 31
0.0
210
0.0
220
0.0
230
1.0
  0
LINE
  5
152
100
AcDbEntity
  8
0
 62
     7
 48
0.05
100
AcDbLine
 10
-30.444702
 20
114.969872
 30
0.0
 11
-28.444702
 21
114.969872
 31
0.0
210
0.0
220
0.0
230
1.0
  0
LINE
  5
153
100
AcDbEntity
  8
0
 62
     7
 48
0.05
100
AcDbLine
 10
-30.444702
 20
114.969872
 30
0.0
 11
-30.444702
 21
112.969872
 31
0.0
210
0.0
220
0.0
230
1.0
  0
LINE
  5
154
100
AcDbEntity
  8
0
 62
     7
 48
0.05
100
AcDbLine
 10
-28.444702
 20
114.969872
 30
0.0
 11
-28.444702
 21
112.969872
 31
0.0
210
0.0
220
0.0
230
1.0
  0
LINE
  5
155
100
AcDbEntity
  8
0
 62
     7
 48
0.05
100
AcDbLine
 10
26.555298
 20
64.969872
 30
0.0
 11
26.555298
 21
66.969864
 31
0.0
210
0.0
220
0.0
230
1.0
  0
LINE
  5
156
100
AcDbEntity
  8
0
 62
     7
 48
0.05
100
AcDbLine
 10
26.555298
 20
114.969872
 30
0.0
 11
24.555298
 21
114.969872
 31
0.0
210
0.0
220
0.0
230
1.0
  0
LINE
  5
157
100
AcDbEntity
  8
0
 62
     7
 48
0.05
100
AcDbLine
 10
26.555298
 20
112.969872
 30
0.0
 11
26.555298
 21
114.969872
 31
0.0
210
0.0
220
0.0
230
1.0
  0
ARC
  5
158
100
AcDbEntity
  8
0
 62
     7
100
AcDbCircle
 10
1.555298
 20
199.969879
 30
0.0
 40
2.5
210
0.0
220
0.0
230
1.0
100
AcDbArc
 50
0.0
 51
0.256475
  0
ARC
  5
159
100
AcDbEntity
  8
0
 62
     7
100
AcDbCircle
 10
1.555298
 20
199.969879
 30
0.0
 40
5.85
210
0.0
220
0.0
230
1.0
100
AcDbArc
 50
115.299535
 51
244.700314
  0
ARC
  5
15A
100
AcDbEntity
  8
0
 62
     7
100
AcDbCircle
 10
1.555298
 20
199.969879
 30
0.0
 40
5.85
210
0.0
220
0.0
230
1.0
100
AcDbArc
 50
295.299496
 51
64.70047
  0
ARC
  5
15B
100
AcDbEntity
  8
0
 62
     7
100
AcDbCircle
 10
1.555298
 20
199.969879
 30
0.0
 40
9.1
210
0.0
220
0.0
230
1.0
100
AcDbArc
 50
285.945621
 51
74.054379
  0
ARC
  5
15C
100
AcDbEntity
  8
0
 62
     7
100
AcDbCircle
 10
1.555298
 20
199.969879
 30
0.0
 40
9.1
210
0.0
220
0.0
230
1.0
100
AcDbArc
 50
105.945667
 51
254.054142
  0
ARC
  5
15D
100
AcDbEntity
  8
0
 62
     7
100
AcDbCircle
 10
1.555298
 20
199.969879
 30
0.0
 40
7.5
210
0.0
220
0.0
230
1.0
100
AcDbArc
 50
289.471193
 51
70.528807
  0
ARC
  5
15E
100
AcDbEntity
  8
0
 62
     7
100
AcDbCircle
 10
1.555298
 20
199.969879
 30
0.0
 40
7.5
210
0.0
220
0.0
230
1.0
100
AcDbArc
 50
109.471253
 51
250.528617
  0
ARC
  5
15F
100
AcDbEntity
  8
0
 62
     7
100
AcDbCircle
 10
1.555298
 20
199.969879
 30
0.0
 40
7.5
210
0.0
220
0.0
230
1.0
100
AcDbArc
 50
298.647887
 51
70.528813
  0
ARC
  5
160
100
AcDbEntity
  8
0
 62
     7
100
AcDbCircle
 10
1.555298
 20
199.969879
 30
0.0
 40
7.5
210
0.0
220
0.0
230
1.0
100
AcDbArc
 50
109.47126
 51
118.647885
  0
LINE
  5
161
100
AcDbEntity
  8
0
 62
     7
100
AcDbLine
 10
4.055298
 20
160.969879
 30
0.0
 11
4.055298
 21
199.969879
 31
0.0
210
0.0
220
0.0
230
1.0
  0
LINE
  5
162
100
AcDbEntity
  8
0
 62
     7
100
AcDbLine
 10
4.055298
 20
160.969879
 30
0.0
 11
4.055298
 21
140.969879
 31
0.0
210
0.0
220
0.0
230
1.0
  0
LINE
  5
163
100
AcDbEntity
  8
0
 62
     7
 48
0.15
100
AcDbLine
 10
4.055298
 20
134.969879
 30
0.0
 11
4.055298
 21
140.969879
 31
0.0
210
0.0
220
0.0
230
1.0
  0
ARC
  5
164
100
AcDbEntity
  8
0
 62
     7
100
AcDbCircle
 10
-2.344702
 20
131.969879
 30
0.0
 40
3.0
210
0.0
220
0.0
230
1.0
100
AcDbArc
 50
90.000003
 51
179.999995
  0
LINE
  5
165
100
AcDbEntity
  8
0
 62
     7
 48
0.02
100
AcDbLine
 10
8.455297
 20
131.969879
 30
0.0
 11
8.455297
 21
131.169876
 31
0.0
210
0.0
220
0.0
230
1.0
  0
ARC
  5
166
100
AcDbEntity
  8
0
 62
     7
100
AcDbCircle
 10
5.455297
 20
131.969879
 30
0.0
 40
3.0
210
0.0
220
0.0
230
1.0
100
AcDbArc
 50
360.0
 51
90.000003
  0
ARC
  5
167
100
AcDbEntity
  8
0
 62
     7
100
AcDbCircle
 10
1.555298
 20
224.969879
 30
0.0
 40
2.5
210
0.0
220
0.0
230
1.0
100
AcDbArc
 50
0.0
 51
180.000005
  0
ARC
  5
168
100
AcDbEntity
  8
0
 62
     7
100
AcDbCircle
 10
1.555298
 20
151.969879
 30
0.0
 40
2.5
210
0.0
220
0.0
230
1.0
100
AcDbArc
 50
180.000005
 51
360.0
  0
LINE
  5
169
100
AcDbEntity
  8
0
 62
     7
 48
0.144244
100
AcDbLine
 10
-0.314463
 20
134.969879
 30
0.0
 11
5.455297
 21
134.969879
 31
0.0
210
0.0
220
0.0
230
1.0
  0
LINE
  5
16A
100
AcDbEntity
  8
0
 62
     7
 48
0.050756
100
AcDbLine
 10
-2.344702
 20
134.969879
 30
0.0
 11
-0.314463
 21
134.969879
 31
0.0
210
0.0
220
0.0
230
1.0
  0
LINE
  5
16B
100
AcDbEntity
  8
0
 62
     7
 48
0.405
100
AcDbLine
 10
-5.794703
 20
114.969872
 30
0.0
 11
-5.794703
 21
131.169876
 31
0.0
210
0.0
220
0.0
230
1.0
  0
LINE
  5
16C
100
AcDbEntity
  8
0
 62
     7
 48
0.405
100
AcDbLine
 10
1.555298
 20
114.969872
 30
0.0
 11
1.555298
 21
131.169876
 31
0.0
210
0.0
220
0.0
230
1.0
  0
LINE
  5
16D
100
AcDbEntity
  8
0
 62
     7
 48
0.18375
100
AcDbLine
 10
-5.794703
 20
131.169876
 30
0.0
 11
1.555298
 21
131.169876
 31
0.0
210
0.0
220
0.0
230
1.0
  0
LINE
  5
16E
100
AcDbEntity
  8
0
 62
     7
 48
0.405
100
AcDbLine
 10
8.905296
 20
114.969872
 30
0.0
 11
8.905296
 21
131.169876
 31
0.0
210
0.0
220
0.0
230
1.0
  0
LINE
  5
16F
100
AcDbEntity
  8
0
 62
     7
 48
0.18375
100
AcDbLine
 10
1.555298
 20
131.169876
 30
0.0
 11
8.905296
 21
131.169876
 31
0.0
210
0.0
220
0.0
230
1.0
  0
ARC
  5
170
100
AcDbEntity
  8
0
 62
     7
100
AcDbCircle
 10
1.555298
 20
224.969879
 30
0.0
 40
5.85
210
0.0
220
0.0
230
1.0
100
AcDbArc
 50
298.647887
 51
244.700451
  0
ARC
  5
171
100
AcDbEntity
  8
0
 62
     7
100
AcDbCircle
 10
1.555298
 20
224.969879
 30
0.0
 40
5.85
210
0.0
220
0.0
230
1.0
100
AcDbArc
 50
295.299455
 51
298.647887
  0
ARC
  5
172
100
AcDbEntity
  8
0
 62
     7
100
AcDbCircle
 10
1.555298
 20
224.969879
 30
0.0
 40
9.1
210
0.0
220
0.0
230
1.0
100
AcDbArc
 50
285.9456
 51
254.054354
  0
ARC
  5
173
100
AcDbEntity
  8
0
 62
     7
100
AcDbCircle
 10
1.555298
 20
224.969879
 30
0.0
 40
7.5
210
0.0
220
0.0
230
1.0
100
AcDbArc
 50
289.47118
 51
250.528767
  0
ARC
  5
174
100
AcDbEntity
  8
0
 62
     7
100
AcDbCircle
 10
1.555298
 20
224.969879
 30
0.0
 40
7.5
210
0.0
220
0.0
230
1.0
100
AcDbArc
 50
298.647887
 51
118.647885
  0
LINE
  5
175
100
AcDbEntity
  8
0
 62
     7
100
AcDbLine
 10
4.055298
 20
199.969879
 30
0.0
 11
4.055298
 21
224.969879
 31
0.0
210
0.0
220
0.0
230
1.0
  0
LINE
  5
176
100
AcDbEntity
  8
0
 62
     7
100
AcDbLine
 10
-0.944702
 20
199.969879
 30
0.0
 11
-0.944702
 21
224.969879
 31
0.0
210
0.0
220
0.0
230
1.0
  0
LINE
  5
177
100
AcDbEntity
  8
0
 62
     7
100
AcDbLine
 10
4.055298
 20
176.969879
 30
0.0
 11
4.055298
 21
199.969879
 31
0.0
210
0.0
220
0.0
230
1.0
  0
LINE
  5
178
100
AcDbEntity
  8
0
 62
     7
100
AcDbLine
 10
-0.944702
 20
176.969879
 30
0.0
 11
-0.944702
 21
199.969879
 31
0.0
210
0.0
220
0.0
230
1.0
  0
LINE
  5
179
100
AcDbEntity
  8
0
 62
     7
100
AcDbLine
 10
4.055298
 20
151.969879
 30
0.0
 11
4.055298
 21
176.969879
 31
0.0
210
0.0
220
0.0
230
1.0
  0
LINE
  5
17A
100
AcDbEntity
  8
0
 62
     7
100
AcDbLine
 10
-0.944702
 20
151.969879
 30
0.0
 11
-0.944702
 21
176.969879
 31
0.0
210
0.0
220
0.0
230
1.0
  0
LINE
  5
17B
100
AcDbEntity
  8
0
 62
     7
 48
0.3
100
AcDbLine
 10
4.055298
 20
151.969879
 30
0.0
 11
4.055298
 21
139.969879
 31
0.0
210
0.0
220
0.0
230
1.0
  0
LINE
  5
17C
100
AcDbEntity
  8
0
 62
     7
 48
0.3
100
AcDbLine
 10
-0.944702
 20
151.969879
 30
0.0
 11
-0.944702
 21
139.969879
 31
0.0
210
0.0
220
0.0
230
1.0
  0
LINE
  5
17D
100
AcDbEntity
  8
0
 62
     7
 48
0.125
100
AcDbLine
 10
4.055298
 20
134.969879
 30
0.0
 11
4.055298
 21
139.969879
 31
0.0
210
0.0
220
0.0
230
1.0
  0
LINE
  5
17E
100
AcDbEntity
  8
0
 62
     7
 48
0.125
100
AcDbLine
 10
-0.944702
 20
134.969879
 30
0.0
 11
-0.944702
 21
139.969879
 31
0.0
210
0.0
220
0.0
230
1.0
  0
LINE
  5
17F
100
AcDbEntity
  8
0
 62
     7
 48
0.02
100
AcDbLine
 10
-5.344702
 20
131.969879
 30
0.0
 11
-5.344702
 21
131.169876
 31
0.0
210
0.0
220
0.0
230
1.0
  0
ARC
  5
180
100
AcDbEntity
  8
0
 62
     7
100
AcDbCircle
 10
-2.344702
 20
131.969879
 30
0.0
 40
3.0
210
0.0
220
0.0
230
1.0
100
AcDbArc
 50
90.000003
 51
179.999995
  0
LINE
  5
181
100
AcDbEntity
  8
0
 62
     7
 48
0.02
100
AcDbLine
 10
8.455297
 20
131.969879
 30
0.0
 11
8.455297
 21
131.169876
 31
0.0
210
0.0
220
0.0
230
1.0
  0
ARC
  5
182
100
AcDbEntity
  8
0
 62
     7
100
AcDbCircle
 10
5.455297
 20
131.969879
 30
0.0
 40
3.0
210
0.0
220
0.0
230
1.0
100
AcDbArc
 50
360.0
 51
90.000003
  0
LINE
  5
183
100
AcDbEntity
  8
0
 62
     7
100
AcDbLine
 10
26.555298
 20
114.969872
 30
0.0
 11
-23.444702
 21
114.969872
 31
0.0
210
0.0
220
0.0
230
1.0
  0
LINE
  5
184
100
AcDbEntity
  8
0
 62
     7
 48
0.04994
100
AcDbLine
 10
24.557716
 20
64.969872
 30
0.0
 11
26.555298
 21
64.969872
 31
0.0
210
0.0
220
0.0
230
1.0
  0
LINE
  5
185
100
AcDbEntity
  8
0
 62
     7
100
AcDbLine
 10
26.555298
 20
114.969872
 30
0.0
 11
26.555298
 21
64.969872
 31
0.0
210
0.0
220
0.0
230
1.0
  0
LINE
  5
186
100
AcDbEntity
  8
0
 62
     7
 48
0.025
100
AcDbLine
 10
-23.444702
 20
63.969872
 30
0.0
 11
-23.444702
 21
64.969872
 31
0.0
210
0.0
220
0.0
230
1.0
  0
LINE
  5
187
100
AcDbEntity
  8
0
 62
     7
100
AcDbLine
 10
-23.444702
 20
63.969872
 30
0.0
 11
26.555298
 21
63.969872
 31
0.0
210
0.0
220
0.0
230
1.0
  0
LINE
  5
188
100
AcDbEntity
  8
0
 62
     7
 48
0.025
100
AcDbLine
 10
26.555298
 20
63.969872
 30
0.0
 11
26.555298
 21
64.969872
 31
0.0
210
0.0
220
0.0
230
1.0
  0
LINE
  5
189
100
AcDbEntity
  8
0
 62
     7
 48
0.025
100
AcDbLine
 10
-23.444702
 20
786.969849
 30
0.0
 11
-23.444702
 21
787.969849
 31
0.0
210
0.0
220
0.0
230
1.0
  0
LINE
  5
18A
100
AcDbEntity
  8
0
 62
     7
100
AcDbLine
 10
-23.444702
 20
786.969849
 30
0.0
 11
26.555298
 21
786.969849
 31
0.0
210
0.0
220
0.0
230
1.0
  0
LINE
  5
18B
100
AcDbEntity
  8
0
 62
     7
 48
0.025
100
AcDbLine
 10
26.555298
 20
786.969849
 30
0.0
 11
26.555298
 21
787.969849
 31
0.0
210
0.0
220
0.0
230
1.0
  0
LINE
  5
18C
100
AcDbEntity
  8
0
 62
     7
100
AcDbLine
 10
-23.444702
 20
787.969849
 30
0.0
 11
26.555298
 21
787.969849
 31
0.0
210
0.0
220
0.0
230
1.0
  0
CIRCLE
  5
18D
100
AcDbEntity
  8
0
 62
     7
100
AcDbCircle
 10
358.710846
 20
-24.59951
 30
0.0
 40
2.5
210
0.0
220
0.0
230
1.0
  0
LINE
  5
18E
100
AcDbEntity
  8
0
 62
     7
 48
0.05
100
AcDbLine
 10
344.520844
 20
-54.59951
 30
0.0
 11
344.520844
 21
-56.59951
 31
0.0
210
0.0
220
0.0
230
1.0
  0
LINE
  5
18F
100
AcDbEntity
  8
0
 62
     7
 48
0.05
100
AcDbLine
 10
338.020844
 20
-54.59951
 30
0.0
 11
338.020844
 21
-56.59951
 31
0.0
210
0.0
220
0.0
230
1.0
  0
LINE
  5
190
100
AcDbEntity
  8
0
 62
     7
 48
0.1625
100
AcDbLine
 10
338.020844
 20
-56.59951
 30
0.0
 11
344.520844
 21
-56.59951
 31
0.0
210
0.0
220
0.0
230
1.0
  0
LINE
  5
191
100
AcDbEntity
  8
0
 62
     7
 48
0.1625
100
AcDbLine
 10
344.520844
 20
-54.59951
 30
0.0
 11
338.020844
 21
-54.59951
 31
0.0
210
0.0
220
0.0
230
1.0
  0
CIRCLE
  5
192
100
AcDbEntity
  8
0
 62
     7
100
AcDbCircle
 10
323.830841
 20
-24.59951
 30
0.0
 40
2.5
210
0.0
220
0.0
230
1.0
  0
LINE
  5
193
100
AcDbEntity
  8
0
 62
     7
 48
0.05
100
AcDbLine
 10
366.270844
 20
-52.59951
 30
0.0
 11
366.270844
 21
-54.59951
 31
0.0
210
0.0
220
0.0
230
1.0
  0
LINE
  5
194
100
AcDbEntity
  8
0
 62
     7
 48
0.05
100
AcDbLine
 10
316.270844
 20
-52.59951
 30
0.0
 11
316.270844
 21
-54.59951
 31
0.0
210
0.0
220
0.0
230
1.0
  0
ARC
  5
195
100
AcDbEntity
  8
0
 62
     7
100
AcDbCircle
 10
318.270844
 20
-1.59951
 30
0.0
 40
2.0
210
0.0
220
0.0
230
1.0
100
AcDbArc
 50
90.000003
 51
180.000005
  0
LINE
  5
196
100
AcDbEntity
  8
0
 62
     7
100
AcDbLine
 10
366.270844
 20
-1.59951
 30
0.0
 11
366.270844
 21
-52.59951
 31
0.0
210
0.0
220
0.0
230
1.0
  0
LINE
  5
197
100
AcDbEntity
  8
0
 62
     7
100
AcDbLine
 10
316.270844
 20
-1.59951
 30
0.0
 11
316.270844
 21
-52.59951
 31
0.0
210
0.0
220
0.0
230
1.0
  0
LINE
  5
198
100
AcDbEntity
  8
0
 62
     7
100
AcDbLine
 10
364.270844
 20
0.40049
 30
0.0
 11
318.270844
 21
0.40049
 31
0.0
210
0.0
220
0.0
230
1.0
  0
ARC
  5
199
100
AcDbEntity
  8
0
 62
     7
100
AcDbCircle
 10
364.270844
 20
-1.59951
 30
0.0
 40
2.0
210
0.0
220
0.0
230
1.0
100
AcDbArc
 50
0.0
 51
90.000003
  0
LINE
  5
19A
100
AcDbEntity
  8
0
 62
     7
 48
0.49375
100
AcDbLine
 10
364.270844
 20
-54.59951
 30
0.0
 11
344.520844
 21
-54.59951
 31
0.0
210
0.0
220
0.0
230
1.0
  0
LINE
  5
19B
100
AcDbEntity
  8
0
 62
     7
 48
0.49375
100
AcDbLine
 10
364.270844
 20
-56.59951
 30
0.0
 11
344.520844
 21
-56.59951
 31
0.0
210
0.0
220
0.0
230
1.0
  0
LINE
  5
19C
100
AcDbEntity
  8
0
 62
     7
 48
0.05
100
AcDbLine
 10
366.270844
 20
-56.59951
 30
0.0
 11
366.270844
 21
-54.59951
 31
0.0
210
0.0
220
0.0
230
1.0
  0
LINE
  5
19D
100
AcDbEntity
  8
0
 62
     7
 48
0.05
100
AcDbLine
 10
364.270844
 20
-54.59951
 30
0.0
 11
366.270844
 21
-54.59951
 31
0.0
210
0.0
220
0.0
230
1.0
  0
LINE
  5
19E
100
AcDbEntity
  8
0
 62
     7
 48
0.05
100
AcDbLine
 10
364.270844
 20
-56.59951
 30
0.0
 11
366.270844
 21
-56.59951
 31
0.0
210
0.0
220
0.0
230
1.0
  0
LINE
  5
19F
100
AcDbEntity
  8
0
 62
     7
 48
0.49375
100
AcDbLine
 10
338.020844
 20
-56.59951
 30
0.0
 11
318.270844
 21
-56.59951
 31
0.0
210
0.0
220
0.0
230
1.0
  0
LINE
  5
1A0
100
AcDbEntity
  8
0
 62
     7
 48
0.49375
100
AcDbLine
 10
338.020844
 20
-54.59951
 30
0.0
 11
318.270844
 21
-54.59951
 31
0.0
210
0.0
220
0.0
230
1.0
  0
LINE
  5
1A1
100
AcDbEntity
  8
0
 62
     7
 48
0.05
100
AcDbLine
 10
316.270844
 20
-56.59951
 30
0.0
 11
316.270844
 21
-54.59951
 31
0.0
210
0.0
220
0.0
230
1.0
  0
LINE
  5
1A2
100
AcDbEntity
  8
0
 62
     7
 48
0.05
100
AcDbLine
 10
316.270844
 20
-56.59951
 30
0.0
 11
318.270844
 21
-56.59951
 31
0.0
210
0.0
220
0.0
230
1.0
  0
LINE
  5
1A3
100
AcDbEntity
  8
0
 62
     7
 48
0.05
100
AcDbLine
 10
316.270844
 20
-54.59951
 30
0.0
 11
318.270844
 21
-54.59951
 31
0.0
210
0.0
220
0.0
230
1.0
  0
ARC
  5
1A4
100
AcDbEntity
  8
0
 62
     7
100
AcDbCircle
 10
86.270844
 20
-52.59951
 30
0.0
 40
4.0
210
0.0
220
0.0
230
1.0
100
AcDbArc
 50
269.999997
 51
360.0
  0
ARC
  5
1A5
100
AcDbEntity
  8
0
 62
     7
100
AcDbCircle
 10
86.270844
 20
-52.59951
 30
0.0
 40
2.0
210
0.0
220
0.0
230
1.0
100
AcDbArc
 50
269.999997
 51
360.0
  0
LINE
  5
1A6
100
AcDbEntity
  8
0
 62
     7
100
AcDbLine
 10
88.270844
 20
-1.59951
 30
0.0
 11
88.270844
 21
-52.59951
 31
0.0
210
0.0
220
0.0
230
1.0
  0
LINE
  5
1A7
100
AcDbEntity
  8
0
 62
     7
 48
0.05
100
AcDbLine
 10
88.270844
 20
-1.59951
 30
0.0
 11
88.270844
 21
0.40049
 31
0.0
210
0.0
220
0.0
230
1.0
  0
LINE
  5
1A8
100
AcDbEntity
  8
0
 62
     7
100
AcDbLine
 10
90.270844
 20
-1.59951
 30
0.0
 11
90.270844
 21
-52.59951
 31
0.0
210
0.0
220
0.0
230
1.0
  0
LINE
  5
1A9
100
AcDbEntity
  8
0
 62
     7
 48
0.05
100
AcDbLine
 10
90.270844
 20
-1.59951
 30
0.0
 11
90.270844
 21
0.40049
 31
0.0
210
0.0
220
0.0
230
1.0
  0
LINE
  5
1AA
100
AcDbEntity
  8
0
 62
     7
 48
0.05
100
AcDbLine
 10
88.270844
 20
0.40049
 30
0.0
 11
90.270844
 21
0.40049
 31
0.0
210
0.0
220
0.0
230
1.0
  0
LINE
  5
1AB
100
AcDbEntity
  8
0
 62
     7
 48
0.05
100
AcDbLine
 10
60.270844
 20
-56.59951
 30
0.0
 11
60.270844
 21
-54.59951
 31
0.0
210
0.0
220
0.0
230
1.0
  0
LINE
  5
1AC
100
AcDbEntity
  8
0
 62
     7
100
AcDbLine
 10
86.270844
 20
-54.59951
 30
0.0
 11
62.270844
 21
-54.59951
 31
0.0
210
0.0
220
0.0
230
1.0
  0
LINE
  5
1AD
100
AcDbEntity
  8
0
 62
     7
100
AcDbLine
 10
86.270844
 20
-56.59951
 30
0.0
 11
62.270844
 21
-56.59951
 31
0.0
210
0.0
220
0.0
230
1.0
  0
LINE
  5
1AE
100
AcDbEntity
  8
0
 62
     7
 48
0.05
100
AcDbLine
 10
60.270844
 20
-54.59951
 30
0.0
 11
62.270844
 21
-54.59951
 31
0.0
210
0.0
220
0.0
230
1.0
  0
LINE
  5
1AF
100
AcDbEntity
  8
0
 62
     7
 48
0.05
100
AcDbLine
 10
60.270844
 20
-56.59951
 30
0.0
 11
62.270844
 21
-56.59951
 31
0.0
210
0.0
220
0.0
230
1.0
  0
LINE
  5
1B0
100
AcDbEntity
  8
0
 62
     7
100
AcDbLine
 10
591.270874
 20
-49.59951
 30
0.0
 11
366.270844
 21
-49.59951
 31
0.0
210
0.0
220
0.0
230
1.0
  0
LINE
  5
1B1
100
AcDbEntity
  8
0
 62
     7
100
AcDbLine
 10
316.270844
 20
-49.59951
 30
0.0
 11
91.270844
 21
-49.59951
 31
0.0
210
0.0
220
0.0
230
1.0
  0
LINE
  5
1B2
100
AcDbEntity
  8
0
 62
     7
100
AcDbLine
 10
591.270874
 20
-49.59951
 30
0.0
 11
591.270874
 21
0.40049
 31
0.0
210
0.0
220
0.0
230
1.0
  0
LINE
  5
1B3
100
AcDbEntity
  8
0
 62
     7
100
AcDbLine
 10
591.270874
 20
0.40049
 30
0.0
 11
364.270844
 21
0.40049
 31
0.0
210
0.0
220
0.0
230
1.0
  0
LINE
  5
1B4
100
AcDbEntity
  8
0
 62
     7
100
AcDbLine
 10
318.270844
 20
0.40049
 30
0.0
 11
91.270844
 21
0.40049
 31
0.0
210
0.0
220
0.0
230
1.0
  0
LINE
  5
1B5
100
AcDbEntity
  8
0
 62
     7
100
AcDbLine
 10
91.270844
 20
-49.59951
 30
0.0
 11
91.270844
 21
0.40049
 31
0.0
210
0.0
220
0.0
230
1.0
  0
ARC
  5
1B6
100
AcDbEntity
  8
0
 62
     7
100
AcDbCircle
 10
596.270874
 20
-52.59951
 30
0.0
 40
4.0
210
0.0
220
0.0
230
1.0
100
AcDbArc
 50
180.000005
 51
269.999997
  0
ARC
  5
1B7
100
AcDbEntity
  8
0
 62
     7
100
AcDbCircle
 10
596.270874
 20
-52.59951
 30
0.0
 40
2.0
210
0.0
220
0.0
230
1.0
100
AcDbArc
 50
180.000005
 51
269.999997
  0
LINE
  5
1B8
100
AcDbEntity
  8
0
 62
     7
 48
0.05
100
AcDbLine
 10
594.270874
 20
0.40049
 30
0.0
 11
594.270874
 21
-1.59951
 31
0.0
210
0.0
220
0.0
230
1.0
  0
LINE
  5
1B9
100
AcDbEntity
  8
0
 62
     7
 48
0.05
100
AcDbLine
 10
594.270874
 20
0.40049
 30
0.0
 11
592.270874
 21
0.40049
 31
0.0
210
0.0
220
0.0
230
1.0
  0
LINE
  5
1BA
100
AcDbEntity
  8
0
 62
     7
100
AcDbLine
 10
594.270874
 20
-1.59951
 30
0.0
 11
594.270874
 21
-52.59951
 31
0.0
210
0.0
220
0.0
230
1.0
  0
LINE
  5
1BB
100
AcDbEntity
  8
0
 62
     7
100
AcDbLine
 10
592.270874
 20
-1.59951
 30
0.0
 11
592.270874
 21
-52.59951
 31
0.0
210
0.0
220
0.0
230
1.0
  0
LINE
  5
1BC
100
AcDbEntity
  8
0
 62
     7
 48
0.05
100
AcDbLine
 10
622.270874
 20
-56.59951
 30
0.0
 11
622.270874
 21
-54.59951
 31
0.0
210
0.0
220
0.0
230
1.0
  0
LINE
  5
1BD
100
AcDbEntity
  8
0
 62
     7
100
AcDbLine
 10
596.270874
 20
-54.59951
 30
0.0
 11
620.270874
 21
-54.59951
 31
0.0
210
0.0
220
0.0
230
1.0
  0
LINE
  5
1BE
100
AcDbEntity
  8
0
 62
     7
100
AcDbLine
 10
596.270874
 20
-56.59951
 30
0.0
 11
620.270874
 21
-56.59951
 31
0.0
210
0.0
220
0.0
230
1.0
  0
LINE
  5
1BF
100
AcDbEntity
  8
0
 62
     7
 48
0.05
100
AcDbLine
 10
620.270874
 20
-56.59951
 30
0.0
 11
622.270874
 21
-56.59951
 31
0.0
210
0.0
220
0.0
230
1.0
  0
LINE
  5
1C0
100
AcDbEntity
  8
0
 62
     7
 48
0.05
100
AcDbLine
 10
620.270874
 20
-54.59951
 30
0.0
 11
622.270874
 21
-54.59951
 31
0.0
210
0.0
220
0.0
230
1.0
  0
LINE
  5
1C1
100
AcDbEntity
  8
0
 62
     7
 48
0.025
100
AcDbLine
 10
91.270844
 20
-49.59951
 30
0.0
 11
90.270844
 21
-49.59951
 31
0.0
210
0.0
220
0.0
230
1.0
  0
LINE
  5
1C2
100
AcDbEntity
  8
0
 62
     7
100
AcDbLine
 10
91.270844
 20
-49.59951
 30
0.0
 11
91.270844
 21
0.40049
 31
0.0
210
0.0
220
0.0
230
1.0
  0
LINE
  5
1C3
100
AcDbEntity
  8
0
 62
     7
 48
0.025
100
AcDbLine
 10
91.270844
 20
0.40049
 30
0.0
 11
90.270844
 21
0.40049
 31
0.0
210
0.0
220
0.0
230
1.0
  0
LINE
  5
1C4
100
AcDbEntity
  8
0
 62
     7
100
AcDbLine
 10
90.270844
 20
-49.59951
 30
0.0
 11
90.270844
 21
0.40049
 31
0.0
210
0.0
220
0.0
230
1.0
  0
LINE
  5
1C5
100
AcDbEntity
  8
0
 62
     7
 48
0.025
100
AcDbLine
 10
592.270874
 20
-49.59951
 30
0.0
 11
591.270874
 21
-49.59951
 31
0.0
210
0.0
220
0.0
230
1.0
  0
LINE
  5
1C6
100
AcDbEntity
  8
0
 62
     7
100
AcDbLine
 10
592.270874
 20
-49.59951
 30
0.0
 11
592.270874
 21
0.40049
 31
0.0
210
0.0
220
0.0
230
1.0
  0
LINE
  5
1C7
100
AcDbEntity
  8
0
 62
     7
 48
0.025
100
AcDbLine
 10
592.270874
 20
0.40049
 30
0.0
 11
591.270874
 21
0.40049
 31
0.0
210
0.0
220
0.0
230
1.0
  0
LINE
  5
1C8
100
AcDbEntity
  8
0
 62
     7
100
AcDbLine
 10
591.270874
 20
-49.59951
 30
0.0
 11
591.270874
 21
0.40049
 31
0.0
210
0.0
220
0.0
230
1.0
  0
LINE
  5
1C9
100
AcDbEntity
  8
0
 62
     7
 48
0.04994
100
AcDbLine
 10
366.270844
 20
0.40049
 30
0.0
 11
366.270844
 21
-1.597122
 31
0.0
210
0.0
220
0.0
230
1.0
  0
LINE
  5
1CA
100
AcDbEntity
  8
0
 62
     7
100
AcDbLine
 10
316.270844
 20
-49.59951
 30
0.0
 11
316.270844
 21
0.40049
 31
0.0
210
0.0
220
0.0
230
1.0
  0
LINE
  5
1CB
100
AcDbEntity
  8
0
 62
     7
100
AcDbLine
 10
366.270844
 20
0.40049
 30
0.0
 11
316.270844
 21
0.40049
 31
0.0
210
0.0
220
0.0
230
1.0
  0
LINE
  5
1CC
100
AcDbEntity
  8
0
 62
     7
100
AcDbLine
 10
940.134766
 20
113.468933
 30
0.0
 11
940.134766
 21
785.468933
 31
0.0
210
0.0
220
0.0
230
1.0
  0
LINE
  5
1CD
100
AcDbEntity
  8
0
 62
     7
 48
0.0625
100
AcDbLine
 10
940.134766
 20
113.468933
 30
0.0
 11
942.634766
 21
113.468933
 31
0.0
210
0.0
220
0.0
230
1.0
  0
LINE
  5
1CE
100
AcDbEntity
  8
0
 62
     7
100
AcDbLine
 10
942.634766
 20
113.468933
 30
0.0
 11
942.634766
 21
785.468933
 31
0.0
210
0.0
220
0.0
230
1.0
  0
LINE
  5
1CF
100
AcDbEntity
  8
0
 62
     7
 48
0.0625
100
AcDbLine
 10
940.134766
 20
785.468933
 30
0.0
 11
942.634766
 21
785.468933
 31
0.0
210
0.0
220
0.0
230
1.0
  0
LINE
  5
1D0
100
AcDbEntity
  8
0
 62
     7
100
AcDbLine
 10
987.634766
 20
113.468933
 30
0.0
 11
987.634766
 21
785.468933
 31
0.0
210
0.0
220
0.0
230
1.0
  0
LINE
  5
1D1
100
AcDbEntity
  8
0
 62
     7
 48
0.0625
100
AcDbLine
 10
987.634766
 20
113.468933
 30
0.0
 11
990.134766
 21
113.468933
 31
0.0
210
0.0
220
0.0
230
1.0
  0
LINE
  5
1D2
100
AcDbEntity
  8
0
 62
     7
100
AcDbLine
 10
990.134766
 20
113.468933
 30
0.0
 11
990.134766
 21
785.468933
 31
0.0
210
0.0
220
0.0
230
1.0
  0
LINE
  5
1D3
100
AcDbEntity
  8
0
 62
     7
 48
0.0625
100
AcDbLine
 10
987.634766
 20
785.468933
 30
0.0
 11
990.134766
 21
785.468933
 31
0.0
210
0.0
220
0.0
230
1.0
  0
LINE
  5
1D4
100
AcDbEntity
  8
0
 62
     7
100
AcDbLine
 10
942.634766
 20
785.468933
 30
0.0
 11
987.634766
 21
785.468933
 31
0.0
210
0.0
220
0.0
230
1.0
  0
LINE
  5
1D5
100
AcDbEntity
  8
0
 62
     7
100
AcDbLine
 10
942.634766
 20
113.468933
 30
0.0
 11
942.634766
 21
785.468933
 31
0.0
210
0.0
220
0.0
230
1.0
  0
LINE
  5
1D6
100
AcDbEntity
  8
0
 62
     7
 48
0.36875
100
AcDbLine
 10
968.384766
 20
47.218933
 30
0.0
 11
968.384766
 21
32.468933
 31
0.0
210
0.0
220
0.0
230
1.0
  0
LINE
  5
1D7
100
AcDbEntity
  8
0
 62
     7
 48
0.36875
100
AcDbLine
 10
961.884766
 20
32.468933
 30
0.0
 11
961.884766
 21
47.218933
 31
0.0
210
0.0
220
0.0
230
1.0
  0
ARC
  5
1D8
100
AcDbEntity
  8
0
 62
     7
100
AcDbCircle
 10
965.134766
 20
47.218933
 30
0.0
 40
3.25
210
0.0
220
0.0
230
1.0
100
AcDbArc
 50
360.0
 51
180.000005
  0
LINE
  5
1D9
100
AcDbEntity
  8
0
 62
     7
 48
0.05
100
AcDbLine
 10
990.134766
 20
60.468937
 30
0.0
 11
990.134766
 21
58.468937
 31
0.0
210
0.0
220
0.0
230
1.0
  0
LINE
  5
1DA
100
AcDbEntity
  8
0
 62
     7
 48
0.05
100
AcDbLine
 10
940.134766
 20
60.468937
 30
0.0
 11
940.134766
 21
58.468937
 31
0.0
210
0.0
220
0.0
230
1.0
  0
LINE
  5
1DB
100
AcDbEntity
  8
0
 62
     7
 48
0.05
100
AcDbLine
 10
940.134766
 20
60.468937
 30
0.0
 11
940.134766
 21
62.468937
 31
0.0
210
0.0
220
0.0
230
1.0
  0
LINE
  5
1DC
100
AcDbEntity
  8
0
 62
     7
 48
0.05
100
AcDbLine
 10
942.134766
 20
60.468937
 30
0.0
 11
940.134766
 21
60.468937
 31
0.0
210
0.0
220
0.0
230
1.0
  0
LINE
  5
1DD
100
AcDbEntity
  8
0
 62
     7
100
AcDbLine
 10
988.134766
 20
60.468937
 30
0.0
 11
942.134766
 21
60.468937
 31
0.0
210
0.0
220
0.0
230
1.0
  0
LINE
  5
1DE
100
AcDbEntity
  8
0
 62
     7
 48
0.05
100
AcDbLine
 10
990.134766
 20
60.468937
 30
0.0
 11
988.134766
 21
60.468937
 31
0.0
210
0.0
220
0.0
230
1.0
  0
LINE
  5
1DF
100
AcDbEntity
  8
0
 62
     7
100
AcDbLine
 10
988.134766
 20
62.468937
 30
0.0
 11
942.134766
 21
62.468937
 31
0.0
210
0.0
220
0.0
230
1.0
  0
LINE
  5
1E0
100
AcDbEntity
  8
0
 62
     7
 48
0.05
100
AcDbLine
 10
990.134766
 20
60.468937
 30
0.0
 11
990.134766
 21
62.468937
 31
0.0
210
0.0
220
0.0
230
1.0
  0
LINE
  5
1E1
100
AcDbEntity
  8
0
 62
     7
 48
0.49375
100
AcDbLine
 10
988.134766
 20
32.468933
 30
0.0
 11
968.384766
 21
32.468933
 31
0.0
210
0.0
220
0.0
230
1.0
  0
LINE
  5
1E2
100
AcDbEntity
  8
0
 62
     7
100
AcDbLine
 10
990.134766
 20
58.468937
 30
0.0
 11
990.134766
 21
34.468933
 31
0.0
210
0.0
220
0.0
230
1.0
  0
ARC
  5
1E3
100
AcDbEntity
  8
0
 62
     7
100
AcDbCircle
 10
988.134766
 20
34.468933
 30
0.0
 40
2.0
210
0.0
220
0.0
230
1.0
100
AcDbArc
 50
269.999997
 51
360.0
  0
LINE
  5
1E4
100
AcDbEntity
  8
0
 62
     7
 48
0.49375
100
AcDbLine
 10
961.884766
 20
32.468933
 30
0.0
 11
942.134766
 21
32.468933
 31
0.0
210
0.0
220
0.0
230
1.0
  0
LINE
  5
1E5
100
AcDbEntity
  8
0
 62
     7
100
AcDbLine
 10
940.134766
 20
58.468937
 30
0.0
 11
940.134766
 21
34.468933
 31
0.0
210
0.0
220
0.0
230
1.0
  0
ARC
  5
1E6
100
AcDbEntity
  8
0
 62
     7
100
AcDbCircle
 10
942.134766
 20
34.468933
 30
0.0
 40
2.0
210
0.0
220
0.0
230
1.0
100
AcDbArc
 50
180.000005
 51
269.999997
  0
LINE
  5
1E7
100
AcDbEntity
  8
0
 62
     7
 48
0.36875
100
AcDbLine
 10
961.884766
 20
801.718933
 30
0.0
 11
961.884766
 21
816.468933
 31
0.0
210
0.0
220
0.0
230
1.0
  0
LINE
  5
1E8
100
AcDbEntity
  8
0
 62
     7
 48
0.36875
100
AcDbLine
 10
968.384766
 20
816.468933
 30
0.0
 11
968.384766
 21
801.718933
 31
0.0
210
0.0
220
0.0
230
1.0
  0
ARC
  5
1E9
100
AcDbEntity
  8
0
 62
     7
100
AcDbCircle
 10
965.134766
 20
801.718933
 30
0.0
 40
3.25
210
0.0
220
0.0
230
1.0
100
AcDbArc
 50
179.999995
 51
0.0
  0
LINE
  5
1EA
100
AcDbEntity
  8
0
 62
     7
 48
0.05
100
AcDbLine
 10
940.134766
 20
788.468933
 30
0.0
 11
940.134766
 21
790.468933
 31
0.0
210
0.0
220
0.0
230
1.0
  0
LINE
  5
1EB
100
AcDbEntity
  8
0
 62
     7
 48
0.05
100
AcDbLine
 10
990.134766
 20
788.468933
 30
0.0
 11
990.134766
 21
790.468933
 31
0.0
210
0.0
220
0.0
230
1.0
  0
LINE
  5
1EC
100
AcDbEntity
  8
0
 62
     7
 48
0.05
100
AcDbLine
 10
990.134766
 20
788.468933
 30
0.0
 11
990.134766
 21
786.468933
 31
0.0
210
0.0
220
0.0
230
1.0
  0
LINE
  5
1ED
100
AcDbEntity
  8
0
 62
     7
 48
0.05
100
AcDbLine
 10
988.134766
 20
788.468933
 30
0.0
 11
990.134766
 21
788.468933
 31
0.0
210
0.0
220
0.0
230
1.0
  0
LINE
  5
1EE
100
AcDbEntity
  8
0
 62
     7
100
AcDbLine
 10
942.134766
 20
788.468933
 30
0.0
 11
988.134766
 21
788.468933
 31
0.0
210
0.0
220
0.0
230
1.0
  0
LINE
  5
1EF
100
AcDbEntity
  8
0
 62
     7
 48
0.05
100
AcDbLine
 10
940.134766
 20
788.468933
 30
0.0
 11
942.134766
 21
788.468933
 31
0.0
210
0.0
220
0.0
230
1.0
  0
LINE
  5
1F0
100
AcDbEntity
  8
0
 62
     7
100
AcDbLine
 10
942.134766
 20
786.468933
 30
0.0
 11
988.134766
 21
786.468933
 31
0.0
210
0.0
220
0.0
230
1.0
  0
LINE
  5
1F1
100
AcDbEntity
  8
0
 62
     7
 48
0.05
100
AcDbLine
 10
940.134766
 20
788.468933
 30
0.0
 11
940.134766
 21
786.468933
 31
0.0
210
0.0
220
0.0
230
1.0
  0
LINE
  5
1F2
100
AcDbEntity
  8
0
 62
     7
 48
0.49375
100
AcDbLine
 10
942.134766
 20
816.468933
 30
0.0
 11
961.884766
 21
816.468933
 31
0.0
210
0.0
220
0.0
230
1.0
  0
LINE
  5
1F3
100
AcDbEntity
  8
0
 62
     7
100
AcDbLine
 10
940.134766
 20
790.468933
 30
0.0
 11
940.134766
 21
814.468933
 31
0.0
210
0.0
220
0.0
230
1.0
  0
ARC
  5
1F4
100
AcDbEntity
  8
0
 62
     7
100
AcDbCircle
 10
942.134766
 20
814.468933
 30
0.0
 40
2.0
210
0.0
220
0.0
230
1.0
100
AcDbArc
 50
90.000003
 51
180.000005
  0
LINE
  5
1F5
100
AcDbEntity
  8
0
 62
     7
 48
0.49375
100
AcDbLine
 10
968.384766
 20
816.468933
 30
0.0
 11
988.134766
 21
816.468933
 31
0.0
210
0.0
220
0.0
230
1.0
  0
LINE
  5
1F6
100
AcDbEntity
  8
0
 62
     7
100
AcDbLine
 10
990.134766
 20
790.468933
 30
0.0
 11
990.134766
 21
814.468933
 31
0.0
210
0.0
220
0.0
230
1.0
  0
ARC
  5
1F7
100
AcDbEntity
  8
0
 62
     7
100
AcDbCircle
 10
988.134766
 20
814.468933
 30
0.0
 40
2.0
210
0.0
220
0.0
230
1.0
100
AcDbArc
 50
0.0
 51
90.000003
  0
LINE
  5
1F8
100
AcDbEntity
  8
0
 62
     7
100
AcDbLine
 10
990.134766
 20
183.468933
 30
0.0
 11
990.134766
 21
298.468933
 31
0.0
210
0.0
220
0.0
230
1.0
  0
LINE
  5
1F9
100
AcDbEntity
  8
0
 62
     7
100
AcDbLine
 10
991.634766
 20
183.468933
 30
0.0
 11
991.634766
 21
298.468933
 31
0.0
210
0.0
220
0.0
230
1.0
  0
LINE
  5
1FA
100
AcDbEntity
  8
0
 62
     7
 48
0.1125
100
AcDbLine
 10
991.634766
 20
262.968933
 30
0.0
 11
996.134766
 21
262.968933
 31
0.0
210
0.0
220
0.0
230
1.0
  0
LINE
  5
1FB
100
AcDbEntity
  8
0
 62
     7
 48
0.1125
100
AcDbLine
 10
991.634766
 20
277.468933
 30
0.0
 11
996.134766
 21
277.468933
 31
0.0
210
0.0
220
0.0
230
1.0
  0
LINE
  5
1FC
100
AcDbEntity
  8
0
 62
     7
 48
0.3625
100
AcDbLine
 10
996.134766
 20
277.468933
 30
0.0
 11
996.134766
 21
262.968933
 31
0.0
210
0.0
220
0.0
230
1.0
  0
LINE
  5
1FD
100
AcDbEntity
  8
0
 62
     7
 48
0.1125
100
AcDbLine
 10
991.634766
 20
291.968933
 30
0.0
 11
996.134766
 21
291.968933
 31
0.0
210
0.0
220
0.0
230
1.0
  0
LINE
  5
1FE
100
AcDbEntity
  8
0
 62
     7
 48
0.3625
100
AcDbLine
 10
996.134766
 20
291.968933
 30
0.0
 11
996.134766
 21
277.468933
 31
0.0
210
0.0
220
0.0
230
1.0
  0
LINE
  5
1FF
100
AcDbEntity
  8
0
 62
     7
 48
0.429375
100
AcDbLine
 10
1001.134766
 20
266.018921
 30
0.0
 11
1001.134766
 21
283.193939
 31
0.0
210
0.0
220
0.0
230
1.0
  0
LINE
  5
200
100
AcDbEntity
  8
0
 62
     7
 48
0.143125
100
AcDbLine
 10
1001.134766
 20
283.193939
 30
0.0
 11
1001.134766
 21
288.918945
 31
0.0
210
0.0
220
0.0
230
1.0
  0
LINE
  5
201
100
AcDbEntity
  8
0
 62
     7
 48
0.2575
100
AcDbLine
 10
994.834778
 20
233.768936
 30
0.0
 11
994.834778
 21
223.468933
 31
0.0
210
0.0
220
0.0
230
1.0
  0
LINE
  5
202
100
AcDbEntity
  8
0
 62
     7
 48
0.2575
100
AcDbLine
 10
994.834778
 20
223.468933
 30
0.0
 11
994.834778
 21
213.16893
 31
0.0
210
0.0
220
0.0
230
1.0
  0
LINE
  5
203
100
AcDbEntity
  8
0
 62
     7
 48
0.2575
100
AcDbLine
 10
994.834778
 20
208.768936
 30
0.0
 11
994.834778
 21
198.468933
 31
0.0
210
0.0
220
0.0
230
1.0
  0
LINE
  5
204
100
AcDbEntity
  8
0
 62
     7
 48
0.2575
100
AcDbLine
 10
994.834778
 20
198.468933
 30
0.0
 11
994.834778
 21
188.16893
 31
0.0
210
0.0
220
0.0
230
1.0
  0
LINE
  5
205
100
AcDbEntity
  8
0
 62
     7
 48
0.0375
100
AcDbLine
 10
990.134766
 20
298.468933
 30
0.0
 11
991.634766
 21
298.468933
 31
0.0
210
0.0
220
0.0
230
1.0
  0
LINE
  5
206
100
AcDbEntity
  8
0
 62
     7
 48
0.0375
100
AcDbLine
 10
990.134766
 20
183.468933
 30
0.0
 11
991.634766
 21
183.468933
 31
0.0
210
0.0
220
0.0
230
1.0
  0
LINE
  5
207
100
AcDbEntity
  8
0
 62
     7
 48
0.08
100
AcDbLine
 10
991.634766
 20
233.768936
 30
0.0
 11
994.834778
 21
233.768936
 31
0.0
210
0.0
220
0.0
230
1.0
  0
LINE
  5
208
100
AcDbEntity
  8
0
 62
     7
 48
0.08
100
AcDbLine
 10
991.634766
 20
223.468933
 30
0.0
 11
994.834778
 21
223.468933
 31
0.0
210
0.0
220
0.0
230
1.0
  0
LINE
  5
209
100
AcDbEntity
  8
0
 62
     7
 48
0.08
100
AcDbLine
 10
991.634766
 20
213.16893
 30
0.0
 11
994.834778
 21
213.16893
 31
0.0
210
0.0
220
0.0
230
1.0
  0
LINE
  5
20A
100
AcDbEntity
  8
0
 62
     7
 48
0.08
100
AcDbLine
 10
991.634766
 20
208.768936
 30
0.0
 11
994.834778
 21
208.768936
 31
0.0
210
0.0
220
0.0
230
1.0
  0
LINE
  5
20B
100
AcDbEntity
  8
0
 62
     7
 48
0.08
100
AcDbLine
 10
991.634766
 20
198.468933
 30
0.0
 11
994.834778
 21
198.468933
 31
0.0
210
0.0
220
0.0
230
1.0
  0
LINE
  5
20C
100
AcDbEntity
  8
0
 62
     7
 48
0.08
100
AcDbLine
 10
991.634766
 20
188.16893
 30
0.0
 11
994.834778
 21
188.16893
 31
0.0
210
0.0
220
0.0
230
1.0
  0
LINE
  5
20D
100
AcDbEntity
  8
0
 62
     7
 48
0.0875
100
AcDbLine
 10
1002.634766
 20
251.968933
 30
0.0
 11
1002.634766
 21
255.468933
 31
0.0
210
0.0
220
0.0
230
1.0
  0
LINE
  5
20E
100
AcDbEntity
  8
0
 62
     7
 48
0.2625
100
AcDbLine
 10
1002.634766
 20
241.468933
 30
0.0
 11
1002.634766
 21
251.968933
 31
0.0
210
0.0
220
0.0
230
1.0
  0
LINE
  5
20F
100
AcDbEntity
  8
0
 62
     7
 48
0.2375
100
AcDbLine
 10
995.634766
 20
257.968933
 30
0.0
 11
995.634766
 21
248.468933
 31
0.0
210
0.0
220
0.0
230
1.0
  0
LINE
  5
210
100
AcDbEntity
  8
0
 62
     7
 48
0.2375
100
AcDbLine
 10
995.634766
 20
248.468933
 30
0.0
 11
995.634766
 21
238.968933
 31
0.0
210
0.0
220
0.0
230
1.0
  0
LINE
  5
211
100
AcDbEntity
  8
0
 62
     7
 48
0.1
100
AcDbLine
 10
991.634766
 20
257.968933
 30
0.0
 11
995.634766
 21
257.968933
 31
0.0
210
0.0
220
0.0
230
1.0
  0
LINE
  5
212
100
AcDbEntity
  8
0
 62
     7
 48
0.1
100
AcDbLine
 10
991.634766
 20
248.468933
 30
0.0
 11
995.634766
 21
248.468933
 31
0.0
210
0.0
220
0.0
230
1.0
  0
LINE
  5
213
100
AcDbEntity
  8
0
 62
     7
 48
0.1
100
AcDbLine
 10
991.634766
 20
238.968933
 30
0.0
 11
995.634766
 21
238.968933
 31
0.0
210
0.0
220
0.0
230
1.0
  0
LINE
  5
214
100
AcDbEntity
  8
0
 62
     7
 48
0.125
100
AcDbLine
 10
996.134766
 20
266.018921
 30
0.0
 11
1001.134766
 21
266.018921
 31
0.0
210
0.0
220
0.0
230
1.0
  0
LINE
  5
215
100
AcDbEntity
  8
0
 62
     7
 48
0.125
100
AcDbLine
 10
996.134766
 20
288.918945
 30
0.0
 11
1001.134766
 21
288.918945
 31
0.0
210
0.0
220
0.0
230
1.0
  0
LINE
  5
216
100
AcDbEntity
  8
0
 62
     7
 48
0.175
100
AcDbLine
 10
995.634766
 20
255.468933
 30
0.0
 11
1002.634766
 21
255.468933
 31
0.0
210
0.0
220
0.0
230
1.0
  0
LINE
  5
217
100
AcDbEntity
  8
0
 62
     7
 48
0.175
100
AcDbLine
 10
995.634766
 20
241.468933
 30
0.0
 11
1002.634766
 21
241.468933
 31
0.0
210
0.0
220
0.0
230
1.0
  0
LINE
  5
218
100
AcDbEntity
  8
0
 62
     7
 48
0.36875
100
AcDbLine
 10
698.884766
 20
85.218933
 30
0.0
 11
684.134766
 21
85.218933
 31
0.0
210
0.0
220
0.0
230
1.0
  0
LINE
  5
219
100
AcDbEntity
  8
0
 62
     7
 48
0.36875
100
AcDbLine
 10
684.134766
 20
91.718933
 30
0.0
 11
698.884766
 21
91.718933
 31
0.0
210
0.0
220
0.0
230
1.0
  0
ARC
  5
21A
100
AcDbEntity
  8
0
 62
     7
100
AcDbCircle
 10
698.884766
 20
88.468933
 30
0.0
 40
3.25
210
0.0
220
0.0
230
1.0
100
AcDbArc
 50
269.999997
 51
90.000003
  0
LINE
  5
21B
100
AcDbEntity
  8
0
 62
     7
 48
0.05
100
AcDbLine
 10
712.134766
 20
63.468933
 30
0.0
 11
710.134766
 21
63.468933
 31
0.0
210
0.0
220
0.0
230
1.0
  0
LINE
  5
21C
100
AcDbEntity
  8
0
 62
     7
 48
0.05
100
AcDbLine
 10
712.134766
 20
113.468933
 30
0.0
 11
710.134766
 21
113.468933
 31
0.0
210
0.0
220
0.0
230
1.0
  0
LINE
  5
21D
100
AcDbEntity
  8
0
 62
     7
 48
0.05
100
AcDbLine
 10
712.134766
 20
113.468933
 30
0.0
 11
714.134766
 21
113.468933
 31
0.0
210
0.0
220
0.0
230
1.0
  0
LINE
  5
21E
100
AcDbEntity
  8
0
 62
     7
 48
0.05
100
AcDbLine
 10
712.134766
 20
111.468933
 30
0.0
 11
712.134766
 21
113.468933
 31
0.0
210
0.0
220
0.0
230
1.0
  0
LINE
  5
21F
100
AcDbEntity
  8
0
 62
     7
100
AcDbLine
 10
712.134766
 20
65.468933
 30
0.0
 11
712.134766
 21
111.468933
 31
0.0
210
0.0
220
0.0
230
1.0
  0
LINE
  5
220
100
AcDbEntity
  8
0
 62
     7
 48
0.05
100
AcDbLine
 10
712.134766
 20
63.468933
 30
0.0
 11
712.134766
 21
65.468933
 31
0.0
210
0.0
220
0.0
230
1.0
  0
LINE
  5
221
100
AcDbEntity
  8
0
 62
     7
100
AcDbLine
 10
714.134766
 20
65.468933
 30
0.0
 11
714.134766
 21
111.468933
 31
0.0
210
0.0
220
0.0
230
1.0
  0
LINE
  5
222
100
AcDbEntity
  8
0
 62
     7
 48
0.05
100
AcDbLine
 10
712.134766
 20
63.468933
 30
0.0
 11
714.134766
 21
63.468933
 31
0.0
210
0.0
220
0.0
230
1.0
  0
LINE
  5
223
100
AcDbEntity
  8
0
 62
     7
 48
0.49375
100
AcDbLine
 10
684.134766
 20
65.468933
 30
0.0
 11
684.134766
 21
85.218933
 31
0.0
210
0.0
220
0.0
230
1.0
  0
LINE
  5
224
100
AcDbEntity
  8
0
 62
     7
100
AcDbLine
 10
710.134766
 20
63.468933
 30
0.0
 11
686.134766
 21
63.468933
 31
0.0
210
0.0
220
0.0
230
1.0
  0
ARC
  5
225
100
AcDbEntity
  8
0
 62
     7
100
AcDbCircle
 10
686.134766
 20
65.468933
 30
0.0
 40
2.0
210
0.0
220
0.0
230
1.0
100
AcDbArc
 50
180.000005
 51
269.999997
  0
LINE
  5
226
100
AcDbEntity
  8
0
 62
     7
 48
0.49375
100
AcDbLine
 10
684.134766
 20
91.718933
 30
0.0
 11
684.134766
 21
111.468933
 31
0.0
210
0.0
220
0.0
230
1.0
  0
LINE
  5
227
100
AcDbEntity
  8
0
 62
     7
100
AcDbLine
 10
710.134766
 20
113.468933
 30
0.0
 11
686.134766
 21
113.468933
 31
0.0
210
0.0
220
0.0
230
1.0
  0
ARC
  5
228
100
AcDbEntity
  8
0
 62
     7
100
AcDbCircle
 10
686.134766
 20
111.468933
 30
0.0
 40
2.0
210
0.0
220
0.0
230
1.0
100
AcDbArc
 50
90.000003
 51
180.000005
  0
LINE
  5
229
100
AcDbEntity
  8
0
 62
     7
100
AcDbLine
 10
1215.134766
 20
63.468933
 30
0.0
 11
715.134766
 21
63.468933
 31
0.0
210
0.0
220
0.0
230
1.0
  0
LINE
  5
22A
100
AcDbEntity
  8
0
 62
     7
100
AcDbLine
 10
1215.134766
 20
65.968933
 30
0.0
 11
715.134766
 21
65.968933
 31
0.0
210
0.0
220
0.0
230
1.0
  0
LINE
  5
22B
100
AcDbEntity
  8
0
 62
     7
 48
0.0625
100
AcDbLine
 10
1215.134766
 20
63.468933
 30
0.0
 11
1215.134766
 21
65.968933
 31
0.0
210
0.0
220
0.0
230
1.0
  0
LINE
  5
22C
100
AcDbEntity
  8
0
 62
     7
 48
0.0625
100
AcDbLine
 10
1215.134766
 20
110.968933
 30
0.0
 11
1215.134766
 21
113.468933
 31
0.0
210
0.0
220
0.0
230
1.0
  0
LINE
  5
22D
100
AcDbEntity
  8
0
 62
     7
 48
0.0625
100
AcDbLine
 10
715.134766
 20
63.468933
 30
0.0
 11
715.134766
 21
65.968933
 31
0.0
210
0.0
220
0.0
230
1.0
  0
LINE
  5
22E
100
AcDbEntity
  8
0
 62
     7
100
AcDbLine
 10
1215.134766
 20
113.468933
 30
0.0
 11
715.134766
 21
113.468933
 31
0.0
210
0.0
220
0.0
230
1.0
  0
LINE
  5
22F
100
AcDbEntity
  8
0
 62
     7
100
AcDbLine
 10
1215.134766
 20
110.968933
 30
0.0
 11
715.134766
 21
110.968933
 31
0.0
210
0.0
220
0.0
230
1.0
  0
LINE
  5
230
100
AcDbEntity
  8
0
 62
     7
 48
0.0625
100
AcDbLine
 10
715.134766
 20
110.968933
 30
0.0
 11
715.134766
 21
113.468933
 31
0.0
210
0.0
220
0.0
230
1.0
  0
LINE
  5
231
100
AcDbEntity
  8
0
 62
     7
100
AcDbLine
 10
1215.134766
 20
110.968933
 30
0.0
 11
715.134766
 21
110.968933
 31
0.0
210
0.0
220
0.0
230
1.0
  0
LINE
  5
232
100
AcDbEntity
  8
0
 62
     7
100
AcDbLine
 10
715.134766
 20
65.968933
 30
0.0
 11
715.134766
 21
110.968933
 31
0.0
210
0.0
220
0.0
230
1.0
  0
LINE
  5
233
100
AcDbEntity
  8
0
 62
     7
 48
0.36875
100
AcDbLine
 10
1231.384766
 20
91.718933
 30
0.0
 11
1246.134766
 21
91.718933
 31
0.0
210
0.0
220
0.0
230
1.0
  0
LINE
  5
234
100
AcDbEntity
  8
0
 62
     7
 48
0.36875
100
AcDbLine
 10
1246.134766
 20
85.218933
 30
0.0
 11
1231.384766
 21
85.218933
 31
0.0
210
0.0
220
0.0
230
1.0
  0
ARC
  5
235
100
AcDbEntity
  8
0
 62
     7
100
AcDbCircle
 10
1231.384766
 20
88.468933
 30
0.0
 40
3.25
210
0.0
220
0.0
230
1.0
100
AcDbArc
 50
90.000003
 51
269.999997
  0
LINE
  5
236
100
AcDbEntity
  8
0
 62
     7
 48
0.05
100
AcDbLine
 10
1218.134766
 20
113.468933
 30
0.0
 11
1220.134766
 21
113.468933
 31
0.0
210
0.0
220
0.0
230
1.0
  0
LINE
  5
237
100
AcDbEntity
  8
0
 62
     7
 48
0.05
100
AcDbLine
 10
1218.134766
 20
63.468933
 30
0.0
 11
1220.134766
 21
63.468933
 31
0.0
210
0.0
220
0.0
230
1.0
  0
LINE
  5
238
100
AcDbEntity
  8
0
 62
     7
 48
0.05
100
AcDbLine
 10
1216.134766
 20
65.468933
 30
0.0
 11
1216.134766
 21
63.468933
 31
0.0
210
0.0
220
0.0
230
1.0
  0
LINE
  5
239
100
AcDbEntity
  8
0
 62
     7
 48
0.05
100
AcDbLine
 10
1218.134766
 20
63.468933
 30
0.0
 11
1216.134766
 21
63.468933
 31
0.0
210
0.0
220
0.0
230
1.0
  0
LINE
  5
23A
100
AcDbEntity
  8
0
 62
     7
 48
0.05
100
AcDbLine
 10
1218.134766
 20
65.468933
 30
0.0
 11
1218.134766
 21
63.468933
 31
0.0
210
0.0
220
0.0
230
1.0
  0
LINE
  5
23B
100
AcDbEntity
  8
0
 62
     7
100
AcDbLine
 10
1218.134766
 20
111.468933
 30
0.0
 11
1218.134766
 21
65.468933
 31
0.0
210
0.0
220
0.0
230
1.0
  0
LINE
  5
23C
100
AcDbEntity
  8
0
 62
     7
 48
0.05
100
AcDbLine
 10
1218.134766
 20
113.468933
 30
0.0
 11
1218.134766
 21
111.468933
 31
0.0
210
0.0
220
0.0
230
1.0
  0
LINE
  5
23D
100
AcDbEntity
  8
0
 62
     7
100
AcDbLine
 10
1216.134766
 20
111.468933
 30
0.0
 11
1216.134766
 21
65.468933
 31
0.0
210
0.0
220
0.0
230
1.0
  0
LINE
  5
23E
100
AcDbEntity
  8
0
 62
     7
 48
0.05
100
AcDbLine
 10
1216.134766
 20
113.468933
 30
0.0
 11
1216.134766
 21
111.468933
 31
0.0
210
0.0
220
0.0
230
1.0
  0
LINE
  5
23F
100
AcDbEntity
  8
0
 62
     7
 48
0.05
100
AcDbLine
 10
1218.134766
 20
113.468933
 30
0.0
 11
1216.134766
 21
113.468933
 31
0.0
210
0.0
220
0.0
230
1.0
  0
LINE
  5
240
100
AcDbEntity
  8
0
 62
     7
 48
0.49375
100
AcDbLine
 10
1246.134766
 20
111.468933
 30
0.0
 11
1246.134766
 21
91.718933
 31
0.0
210
0.0
220
0.0
230
1.0
  0
LINE
  5
241
100
AcDbEntity
  8
0
 62
     7
100
AcDbLine
 10
1220.134766
 20
113.468933
 30
0.0
 11
1244.134766
 21
113.468933
 31
0.0
210
0.0
220
0.0
230
1.0
  0
ARC
  5
242
100
AcDbEntity
  8
0
 62
     7
100
AcDbCircle
 10
1244.134766
 20
111.468933
 30
0.0
 40
2.0
210
0.0
220
0.0
230
1.0
100
AcDbArc
 50
360.0
 51
90.000003
  0
LINE
  5
243
100
AcDbEntity
  8
0
 62
     7
 48
0.49375
100
AcDbLine
 10
1246.134766
 20
85.218933
 30
0.0
 11
1246.134766
 21
65.468933
 31
0.0
210
0.0
220
0.0
230
1.0
  0
LINE
  5
244
100
AcDbEntity
  8
0
 62
     7
100
AcDbLine
 10
1220.134766
 20
63.468933
 30
0.0
 11
1244.134766
 21
63.468933
 31
0.0
210
0.0
220
0.0
230
1.0
  0
ARC
  5
245
100
AcDbEntity
  8
0
 62
     7
100
AcDbCircle
 10
1244.134766
 20
65.468933
 30
0.0
 40
2.0
210
0.0
220
0.0
230
1.0
100
AcDbArc
 50
269.999997
 51
360.0
  0
LINE
  5
246
100
AcDbEntity
  8
0
 62
     7
 48
0.125
100
AcDbLine
 10
1029.834717
 20
225.968933
 30
0.0
 11
1034.834717
 21
225.968933
 31
0.0
210
0.0
220
0.0
230
1.0
  0
LINE
  5
247
100
AcDbEntity
  8
0
 62
     7
 48
0.125
100
AcDbLine
 10
1029.834717
 20
220.968933
 30
0.0
 11
1034.834717
 21
220.968933
 31
0.0
210
0.0
220
0.0
230
1.0
  0
ARC
  5
248
100
AcDbEntity
  8
0
 62
     7
100
AcDbCircle
 10
1034.834717
 20
205.468933
 30
0.0
 40
20.5
210
0.0
220
0.0
230
1.0
100
AcDbArc
 50
360.0
 51
90.000003
  0
ARC
  5
249
100
AcDbEntity
  8
0
 62
     7
100
AcDbCircle
 10
1034.834717
 20
205.468933
 30
0.0
 40
15.5
210
0.0
220
0.0
230
1.0
100
AcDbArc
 50
360.0
 51
90.000003
  0
LINE
  5
24A
100
AcDbEntity
  8
0
 62
     7
 48
0.112772
100
AcDbLine
 10
1055.334717
 20
205.468933
 30
0.0
 11
1055.334717
 21
200.958038
 31
0.0
210
0.0
220
0.0
230
1.0
  0
LINE
  5
24B
100
AcDbEntity
  8
0
 62
     7
 48
0.46215
100
AcDbLine
 10
1055.334717
 20
195.954926
 30
0.0
 11
1055.334717
 21
177.468933
 31
0.0
210
0.0
220
0.0
230
1.0
  0
LINE
  5
24C
100
AcDbEntity
  8
0
 62
     7
 48
0.1125
100
AcDbLine
 10
1050.334717
 20
205.468933
 30
0.0
 11
1050.334717
 21
200.968933
 31
0.0
210
0.0
220
0.0
230
1.0
  0
LINE
  5
24D
100
AcDbEntity
  8
0
 62
     7
 48
0.4625
100
AcDbLine
 10
1050.334717
 20
195.968933
 30
0.0
 11
1050.334717
 21
177.468933
 31
0.0
210
0.0
220
0.0
230
1.0
  0
ARC
  5
24E
100
AcDbEntity
  8
0
 62
     7
100
AcDbCircle
 10
1034.834717
 20
177.468933
 30
0.0
 40
20.5
210
0.0
220
0.0
230
1.0
100
AcDbArc
 50
269.999997
 51
0.0
  0
ARC
  5
24F
100
AcDbEntity
  8
0
 62
     7
100
AcDbCircle
 10
1034.834717
 20
177.468933
 30
0.0
 40
15.5
210
0.0
220
0.0
230
1.0
100
AcDbArc
 50
269.999997
 51
0.0
  0
LINE
  5
250
100
AcDbEntity
  8
0
 62
     7
 48
0.129999
100
AcDbLine
 10
1029.634766
 20
156.968933
 30
0.0
 11
1034.834717
 21
156.968933
 31
0.0
210
0.0
220
0.0
230
1.0
  0
LINE
  5
251
100
AcDbEntity
  8
0
 62
     7
 48
0.129999
100
AcDbLine
 10
1029.634766
 20
161.968933
 30
0.0
 11
1034.834717
 21
161.968933
 31
0.0
210
0.0
220
0.0
230
1.0
  0
ARC
  5
252
100
AcDbEntity
  8
0
 62
     7
100
AcDbCircle
 10
1029.634766
 20
139.468933
 30
0.0
 40
17.5
210
0.0
220
0.0
230
1.0
100
AcDbArc
 50
90.000003
 51
180.000005
  0
ARC
  5
253
100
AcDbEntity
  8
0
 62
     7
100
AcDbCircle
 10
1029.634766
 20
139.468933
 30
0.0
 40
22.5
210
0.0
220
0.0
230
1.0
100
AcDbArc
 50
90.000003
 51
180.000005
  0
LINE
  5
254
100
AcDbEntity
  8
0
 62
     7
 48
0.15
100
AcDbLine
 10
1012.134766
 20
133.468933
 30
0.0
 11
1012.134766
 21
139.468933
 31
0.0
210
0.0
220
0.0
230
1.0
  0
LINE
  5
255
100
AcDbEntity
  8
0
 62
     7
 48
0.15
100
AcDbLine
 10
1007.134766
 20
133.468933
 30
0.0
 11
1007.134766
 21
139.468933
 31
0.0
210
0.0
220
0.0
230
1.0
  0
LINE
  5
256
100
AcDbEntity
  8
0
 62
     7
 48
0.011937
100
AcDbLine
 10
1013.057312
 20
133.468933
 30
0.0
 11
1013.53479
 21
133.468933
 31
0.0
210
0.0
220
0.0
230
1.0
  0
LINE
  5
257
100
AcDbEntity
  8
0
 62
     7
 48
0.183064
100
AcDbLine
 10
1005.734741
 20
133.468933
 30
0.0
 11
1013.057312
 21
133.468933
 31
0.0
210
0.0
220
0.0
230
1.0
  0
LINE
  5
258
100
AcDbEntity
  8
0
 62
     7
 48
0.405
100
AcDbLine
 10
1005.391235
 20
113.468933
 30
0.0
 11
1005.391235
 21
129.66893
 31
0.0
210
0.0
220
0.0
230
1.0
  0
LINE
  5
259
100
AcDbEntity
  8
0
 62
     7
 48
0.405
100
AcDbLine
 10
1013.878296
 20
113.468933
 30
0.0
 11
1013.878296
 21
129.66893
 31
0.0
210
0.0
220
0.0
230
1.0
  0
LINE
  5
25A
100
AcDbEntity
  8
0
 62
     7
 48
0.212177
100
AcDbLine
 10
1005.391235
 20
129.66893
 30
0.0
 11
1013.878296
 21
129.66893
 31
0.0
210
0.0
220
0.0
230
1.0
  0
LINE
  5
25B
100
AcDbEntity
  8
0
 62
     7
 48
0.405
100
AcDbLine
 10
1018.121826
 20
113.468933
 30
0.0
 11
1018.121826
 21
129.66893
 31
0.0
210
0.0
220
0.0
230
1.0
  0
LINE
  5
25C
100
AcDbEntity
  8
0
 62
     7
 48
0.106088
100
AcDbLine
 10
1013.878296
 20
129.66893
 30
0.0
 11
1018.121826
 21
129.66893
 31
0.0
210
0.0
220
0.0
230
1.0
  0
LINE
  5
25D
100
AcDbEntity
  8
0
 62
     7
 48
0.405
100
AcDbLine
 10
1001.147705
 20
113.468933
 30
0.0
 11
1001.147705
 21
129.66893
 31
0.0
210
0.0
220
0.0
230
1.0
  0
LINE
  5
25E
100
AcDbEntity
  8
0
 62
     7
 48
0.106088
100
AcDbLine
 10
1001.147705
 20
129.66893
 30
0.0
 11
1005.391235
 21
129.66893
 31
0.0
210
0.0
220
0.0
230
1.0
  0
LINE
  5
25F
100
AcDbEntity
  8
0
 62
     7
 48
0.274596
100
AcDbLine
 10
1029.834717
 20
217.618927
 30
0.0
 11
1029.834717
 21
228.602783
 31
0.0
210
0.0
220
0.0
230
1.0
  0
LINE
  5
260
100
AcDbEntity
  8
0
 62
     7
 48
0.017904
100
AcDbLine
 10
1029.834717
 20
228.602783
 30
0.0
 11
1029.834717
 21
229.318939
 31
0.0
210
0.0
220
0.0
230
1.0
  0
LINE
  5
261
100
AcDbEntity
  8
0
 62
     7
 48
0.42715
100
AcDbLine
 10
994.834778
 20
214.368927
 30
0.0
 11
994.834778
 21
231.454926
 31
0.0
210
0.0
220
0.0
230
1.0
  0
LINE
  5
262
100
AcDbEntity
  8
0
 62
     7
 48
0.02785
100
AcDbLine
 10
994.834778
 20
231.454926
 30
0.0
 11
994.834778
 21
232.568939
 31
0.0
210
0.0
220
0.0
230
1.0
  0
LINE
  5
263
100
AcDbEntity
  8
0
 62
     7
 48
0.02785
100
AcDbLine
 10
1005.834778
 20
231.454926
 30
0.0
 11
1005.834778
 21
232.568939
 31
0.0
210
0.0
220
0.0
230
1.0
  0
LINE
  5
264
100
AcDbEntity
  8
0
 62
     7
 48
0.42715
100
AcDbLine
 10
1005.834778
 20
214.368927
 30
0.0
 11
1005.834778
 21
231.454926
 31
0.0
210
0.0
220
0.0
230
1.0
  0
LINE
  5
265
100
AcDbEntity
  8
0
 62
     7
 48
0.022953
100
AcDbLine
 10
1023.834778
 20
230.050812
 30
0.0
 11
1023.834778
 21
230.968933
 31
0.0
210
0.0
220
0.0
230
1.0
  0
LINE
  5
266
100
AcDbEntity
  8
0
 62
     7
 48
0.352047
100
AcDbLine
 10
1023.834778
 20
215.968933
 30
0.0
 11
1023.834778
 21
230.050812
 31
0.0
210
0.0
220
0.0
230
1.0
  0
LINE
  5
267
100
AcDbEntity
  8
0
 62
     7
 48
0.022953
100
AcDbLine
 10
1015.234741
 20
230.050812
 30
0.0
 11
1015.234741
 21
230.968933
 31
0.0
210
0.0
220
0.0
230
1.0
  0
LINE
  5
268
100
AcDbEntity
  8
0
 62
     7
 48
0.352047
100
AcDbLine
 10
1015.234741
 20
215.968933
 30
0.0
 11
1015.234741
 21
230.050812
 31
0.0
210
0.0
220
0.0
230
1.0
  0
LINE
  5
269
100
AcDbEntity
  8
0
 62
     7
 48
0.02
100
AcDbLine
 10
1002.734741
 20
130.468933
 30
0.0
 11
1002.734741
 21
129.66893
 31
0.0
210
0.0
220
0.0
230
1.0
  0
ARC
  5
26A
100
AcDbEntity
  8
0
 62
     7
100
AcDbCircle
 10
1005.734741
 20
130.468933
 30
0.0
 40
3.0
210
0.0
220
0.0
230
1.0
100
AcDbArc
 50
90.000003
 51
179.999995
  0
LINE
  5
26B
100
AcDbEntity
  8
0
 62
     7
 48
0.02
100
AcDbLine
 10
1016.53479
 20
130.468933
 30
0.0
 11
1016.53479
 21
129.66893
 31
0.0
210
0.0
220
0.0
230
1.0
  0
ARC
  5
26C
100
AcDbEntity
  8
0
 62
     7
100
AcDbCircle
 10
1013.53479
 20
130.468933
 30
0.0
 40
3.0
210
0.0
220
0.0
230
1.0
100
AcDbArc
 50
360.0
 51
90.000003
  0
LINE
  5
26D
100
AcDbEntity
  8
0
 62
     7
 48
0.155567
100
AcDbLine
 10
1029.834717
 20
229.318939
 30
0.0
 11
1023.834778
 21
230.968933
 31
0.0
210
0.0
220
0.0
230
1.0
  0
LINE
  5
26E
100
AcDbEntity
  8
0
 62
     7
 48
0.155567
100
AcDbLine
 10
1029.834717
 20
217.618927
 30
0.0
 11
1023.834778
 21
215.968933
 31
0.0
210
0.0
220
0.0
230
1.0
  0
ARC
  5
26F
100
AcDbEntity
  8
0
 62
     7
100
AcDbCircle
 10
1019.53479
 20
238.07309
 30
0.0
 40
8.304167
210
0.0
220
0.0
230
1.0
100
AcDbArc
 50
238.814371
 51
301.185624
  0
ARC
  5
270
100
AcDbEntity
  8
0
 62
     7
100
AcDbCircle
 10
1019.53479
 20
208.864777
 30
0.0
 40
8.304167
210
0.0
220
0.0
230
1.0
100
AcDbArc
 50
58.814376
 51
121.185629
  0
LINE
  5
271
100
AcDbEntity
  8
0
 62
     7
 48
0.234999
100
AcDbLine
 10
1005.834778
 20
230.968933
 30
0.0
 11
1015.234741
 21
230.968933
 31
0.0
210
0.0
220
0.0
230
1.0
  0
LINE
  5
272
100
AcDbEntity
  8
0
 62
     7
 48
0.234999
100
AcDbLine
 10
1005.834778
 20
215.968933
 30
0.0
 11
1015.234741
 21
215.968933
 31
0.0
210
0.0
220
0.0
230
1.0
  0
LINE
  5
273
100
AcDbEntity
  8
0
 62
     7
 48
0.275
100
AcDbLine
 10
994.834778
 20
232.568939
 30
0.0
 11
1005.834778
 21
232.568939
 31
0.0
210
0.0
220
0.0
230
1.0
  0
LINE
  5
274
100
AcDbEntity
  8
0
 62
     7
 48
0.275
100
AcDbLine
 10
994.834778
 20
214.368927
 30
0.0
 11
1005.834778
 21
214.368927
 31
0.0
210
0.0
220
0.0
230
1.0
  0
LINE
  5
275
100
AcDbEntity
  8
0
 62
     7
100
AcDbLine
 10
1029.834717
 20
200.968933
 30
0.0
 11
1050.334717
 21
200.968933
 31
0.0
210
0.0
220
0.0
230
1.0
  0
LINE
  5
276
100
AcDbEntity
  8
0
 62
     7
100
AcDbLine
 10
1029.834717
 20
195.968933
 30
0.0
 11
1050.334717
 21
195.968933
 31
0.0
210
0.0
220
0.0
230
1.0
  0
ARC
  5
277
100
AcDbEntity
  8
0
 62
     7
100
AcDbCircle
 10
1054.634766
 20
178.468933
 30
0.0
 40
22.5
210
0.0
220
0.0
230
1.0
100
AcDbArc
 50
0.0
 51
88.21718
  0
ARC
  5
278
100
AcDbEntity
  8
0
 62
     7
100
AcDbCircle
 10
1054.634766
 20
178.468933
 30
0.0
 40
17.5
210
0.0
220
0.0
230
1.0
100
AcDbArc
 50
0.0
 51
87.707559
  0
LINE
  5
279
100
AcDbEntity
  8
0
 62
     7
 48
0.2
100
AcDbLine
 10
1077.134766
 20
178.468933
 30
0.0
 11
1077.134766
 21
170.468933
 31
0.0
210
0.0
220
0.0
230
1.0
  0
LINE
  5
27A
100
AcDbEntity
  8
0
 62
     7
 48
0.2
100
AcDbLine
 10
1072.134766
 20
178.468933
 30
0.0
 11
1072.134766
 21
170.468933
 31
0.0
210
0.0
220
0.0
230
1.0
  0
ARC
  5
27B
100
AcDbEntity
  8
0
 62
     7
100
AcDbCircle
 10
1054.634766
 20
170.468933
 30
0.0
 40
22.5
210
0.0
220
0.0
230
1.0
100
AcDbArc
 50
269.999997
 51
360.0
  0
ARC
  5
27C
100
AcDbEntity
  8
0
 62
     7
100
AcDbCircle
 10
1054.634766
 20
170.468933
 30
0.0
 40
17.5
210
0.0
220
0.0
230
1.0
100
AcDbArc
 50
269.999997
 51
360.0
  0
LINE
  5
27D
100
AcDbEntity
  8
0
 62
     7
 48
0.325
100
AcDbLine
 10
1041.634766
 20
147.968933
 30
0.0
 11
1054.634766
 21
147.968933
 31
0.0
210
0.0
220
0.0
230
1.0
  0
LINE
  5
27E
100
AcDbEntity
  8
0
 62
     7
 48
0.325
100
AcDbLine
 10
1041.634766
 20
152.968933
 30
0.0
 11
1054.634766
 21
152.968933
 31
0.0
210
0.0
220
0.0
230
1.0
  0
ARC
  5
27F
100
AcDbEntity
  8
0
 62
     7
100
AcDbCircle
 10
1041.634766
 20
138.468933
 30
0.0
 40
9.5
210
0.0
220
0.0
230
1.0
100
AcDbArc
 50
90.000003
 51
180.000005
  0
ARC
  5
280
100
AcDbEntity
  8
0
 62
     7
100
AcDbCircle
 10
1041.634766
 20
138.468933
 30
0.0
 40
14.5
210
0.0
220
0.0
230
1.0
100
AcDbArc
 50
90.000003
 51
180.000005
  0
LINE
  5
281
100
AcDbEntity
  8
0
 62
     7
 48
0.125
100
AcDbLine
 10
1032.134766
 20
133.468933
 30
0.0
 11
1032.134766
 21
138.468933
 31
0.0
210
0.0
220
0.0
230
1.0
  0
LINE
  5
282
100
AcDbEntity
  8
0
 62
     7
 48
0.125
100
AcDbLine
 10
1027.134766
 20
133.468933
 30
0.0
 11
1027.134766
 21
138.468933
 31
0.0
210
0.0
220
0.0
230
1.0
  0
LINE
  5
283
100
AcDbEntity
  8
0
 62
     7
 48
0.011935
100
AcDbLine
 10
1033.057373
 20
133.468933
 30
0.0
 11
1033.53479
 21
133.468933
 31
0.0
210
0.0
220
0.0
230
1.0
  0
LINE
  5
284
100
AcDbEntity
  8
0
 62
     7
 48
0.183066
100
AcDbLine
 10
1025.734741
 20
133.468933
 30
0.0
 11
1033.057373
 21
133.468933
 31
0.0
210
0.0
220
0.0
230
1.0
  0
LINE
  5
285
100
AcDbEntity
  8
0
 62
     7
 48
0.405
100
AcDbLine
 10
1025.391235
 20
113.468933
 30
0.0
 11
1025.391235
 21
129.66893
 31
0.0
210
0.0
220
0.0
230
1.0
  0
LINE
  5
286
100
AcDbEntity
  8
0
 62
     7
 48
0.405
100
AcDbLine
 10
1033.878296
 20
113.468933
 30
0.0
 11
1033.878296
 21
129.66893
 31
0.0
210
0.0
220
0.0
230
1.0
  0
LINE
  5
287
100
AcDbEntity
  8
0
 62
     7
 48
0.212177
100
AcDbLine
 10
1025.391235
 20
129.66893
 30
0.0
 11
1033.878296
 21
129.66893
 31
0.0
210
0.0
220
0.0
230
1.0
  0
LINE
  5
288
100
AcDbEntity
  8
0
 62
     7
 48
0.405
100
AcDbLine
 10
1038.121826
 20
113.468933
 30
0.0
 11
1038.121826
 21
129.66893
 31
0.0
210
0.0
220
0.0
230
1.0
  0
LINE
  5
289
100
AcDbEntity
  8
0
 62
     7
 48
0.106088
100
AcDbLine
 10
1033.878296
 20
129.66893
 30
0.0
 11
1038.121826
 21
129.66893
 31
0.0
210
0.0
220
0.0
230
1.0
  0
LINE
  5
28A
100
AcDbEntity
  8
0
 62
     7
 48
0.405
100
AcDbLine
 10
1021.147705
 20
113.468933
 30
0.0
 11
1021.147705
 21
129.66893
 31
0.0
210
0.0
220
0.0
230
1.0
  0
LINE
  5
28B
100
AcDbEntity
  8
0
 62
     7
 48
0.106088
100
AcDbLine
 10
1021.147705
 20
129.66893
 30
0.0
 11
1025.391235
 21
129.66893
 31
0.0
210
0.0
220
0.0
230
1.0
  0
LINE
  5
28C
100
AcDbEntity
  8
0
 62
     7
 48
0.274596
100
AcDbLine
 10
1029.834717
 20
192.618927
 30
0.0
 11
1029.834717
 21
203.602783
 31
0.0
210
0.0
220
0.0
230
1.0
  0
LINE
  5
28D
100
AcDbEntity
  8
0
 62
     7
 48
0.017904
100
AcDbLine
 10
1029.834717
 20
203.602783
 30
0.0
 11
1029.834717
 21
204.318939
 31
0.0
210
0.0
220
0.0
230
1.0
  0
LINE
  5
28E
100
AcDbEntity
  8
0
 62
     7
 48
0.42715
100
AcDbLine
 10
994.834778
 20
189.368927
 30
0.0
 11
994.834778
 21
206.454926
 31
0.0
210
0.0
220
0.0
230
1.0
  0
LINE
  5
28F
100
AcDbEntity
  8
0
 62
     7
 48
0.02785
100
AcDbLine
 10
994.834778
 20
206.454926
 30
0.0
 11
994.834778
 21
207.568939
 31
0.0
210
0.0
220
0.0
230
1.0
  0
LINE
  5
290
100
AcDbEntity
  8
0
 62
     7
 48
0.02785
100
AcDbLine
 10
1005.834778
 20
206.454926
 30
0.0
 11
1005.834778
 21
207.568939
 31
0.0
210
0.0
220
0.0
230
1.0
  0
LINE
  5
291
100
AcDbEntity
  8
0
 62
     7
 48
0.42715
100
AcDbLine
 10
1005.834778
 20
189.368927
 30
0.0
 11
1005.834778
 21
206.454926
 31
0.0
210
0.0
220
0.0
230
1.0
  0
LINE
  5
292
100
AcDbEntity
  8
0
 62
     7
 48
0.022953
100
AcDbLine
 10
1023.834778
 20
205.050812
 30
0.0
 11
1023.834778
 21
205.968933
 31
0.0
210
0.0
220
0.0
230
1.0
  0
LINE
  5
293
100
AcDbEntity
  8
0
 62
     7
 48
0.352047
100
AcDbLine
 10
1023.834778
 20
190.968933
 30
0.0
 11
1023.834778
 21
205.050812
 31
0.0
210
0.0
220
0.0
230
1.0
  0
LINE
  5
294
100
AcDbEntity
  8
0
 62
     7
 48
0.022953
100
AcDbLine
 10
1015.234741
 20
205.050812
 30
0.0
 11
1015.234741
 21
205.968933
 31
0.0
210
0.0
220
0.0
230
1.0
  0
LINE
  5
295
100
AcDbEntity
  8
0
 62
     7
 48
0.352047
100
AcDbLine
 10
1015.234741
 20
190.968933
 30
0.0
 11
1015.234741
 21
205.050812
 31
0.0
210
0.0
220
0.0
230
1.0
  0
LINE
  5
296
100
AcDbEntity
  8
0
 62
     7
 48
0.02
100
AcDbLine
 10
1022.734741
 20
130.468933
 30
0.0
 11
1022.734741
 21
129.66893
 31
0.0
210
0.0
220
0.0
230
1.0
  0
ARC
  5
297
100
AcDbEntity
  8
0
 62
     7
100
AcDbCircle
 10
1025.734741
 20
130.468933
 30
0.0
 40
3.0
210
0.0
220
0.0
230
1.0
100
AcDbArc
 50
90.000003
 51
179.999995
  0
LINE
  5
298
100
AcDbEntity
  8
0
 62
     7
 48
0.02
100
AcDbLine
 10
1036.53479
 20
130.468933
 30
0.0
 11
1036.53479
 21
129.66893
 31
0.0
210
0.0
220
0.0
230
1.0
  0
ARC
  5
299
100
AcDbEntity
  8
0
 62
     7
100
AcDbCircle
 10
1033.53479
 20
130.468933
 30
0.0
 40
3.0
210
0.0
220
0.0
230
1.0
100
AcDbArc
 50
360.0
 51
90.000003
  0
LINE
  5
29A
100
AcDbEntity
  8
0
 62
     7
 48
0.155567
100
AcDbLine
 10
1029.834717
 20
204.318939
 30
0.0
 11
1023.834778
 21
205.968933
 31
0.0
210
0.0
220
0.0
230
1.0
  0
LINE
  5
29B
100
AcDbEntity
  8
0
 62
     7
 48
0.155567
100
AcDbLine
 10
1029.834717
 20
192.618927
 30
0.0
 11
1023.834778
 21
190.968933
 31
0.0
210
0.0
220
0.0
230
1.0
  0
ARC
  5
29C
100
AcDbEntity
  8
0
 62
     7
100
AcDbCircle
 10
1019.53479
 20
213.07309
 30
0.0
 40
8.304167
210
0.0
220
0.0
230
1.0
100
AcDbArc
 50
238.814371
 51
301.185624
  0
ARC
  5
29D
100
AcDbEntity
  8
0
 62
     7
100
AcDbCircle
 10
1019.53479
 20
183.864777
 30
0.0
 40
8.304167
210
0.0
220
0.0
230
1.0
100
AcDbArc
 50
58.814376
 51
121.185629
  0
LINE
  5
29E
100
AcDbEntity
  8
0
 62
     7
 48
0.234999
100
AcDbLine
 10
1005.834778
 20
205.968933
 30
0.0
 11
1015.234741
 21
205.968933
 31
0.0
210
0.0
220
0.0
230
1.0
  0
LINE
  5
29F
100
AcDbEntity
  8
0
 62
     7
 48
0.234999
100
AcDbLine
 10
1005.834778
 20
190.968933
 30
0.0
 11
1015.234741
 21
190.968933
 31
0.0
210
0.0
220
0.0
230
1.0
  0
LINE
  5
2A0
100
AcDbEntity
  8
0
 62
     7
 48
0.275
100
AcDbLine
 10
994.834778
 20
207.568939
 30
0.0
 11
1005.834778
 21
207.568939
 31
0.0
210
0.0
220
0.0
230
1.0
  0
LINE
  5
2A1
100
AcDbEntity
  8
0
 62
     7
 48
0.275
100
AcDbLine
 10
994.834778
 20
189.368927
 30
0.0
 11
1005.834778
 21
189.368927
 31
0.0
210
0.0
220
0.0
230
1.0
  0
LINE
  5
2A2
100
AcDbEntity
  8
0
 62
     7
 48
0.025
100
AcDbLine
 10
1216.134766
 20
113.468933
 30
0.0
 11
1215.134766
 21
113.468933
 31
0.0
210
0.0
220
0.0
230
1.0
  0
LINE
  5
2A3
100
AcDbEntity
  8
0
 62
     7
 48
0.025
100
AcDbLine
 10
1216.134766
 20
63.468933
 30
0.0
 11
1215.134766
 21
63.468933
 31
0.0
210
0.0
220
0.0
230
1.0
  0
LINE
  5
2A4
100
AcDbEntity
  8
0
 62
     7
100
AcDbLine
 10
1216.134766
 20
113.468933
 30
0.0
 11
1216.134766
 21
63.468933
 31
0.0
210
0.0
220
0.0
230
1.0
  0
LINE
  5
2A5
100
AcDbEntity
  8
0
 62
     7
100
AcDbLine
 10
1215.134766
 20
113.468933
 30
0.0
 11
1215.134766
 21
63.468933
 31
0.0
210
0.0
220
0.0
230
1.0
  0
LINE
  5
2A6
100
AcDbEntity
  8
0
 62
     7
 48
0.025
100
AcDbLine
 10
714.134766
 20
63.468933
 30
0.0
 11
715.134766
 21
63.468933
 31
0.0
210
0.0
220
0.0
230
1.0
  0
LINE
  5
2A7
100
AcDbEntity
  8
0
 62
     7
 48
0.025
100
AcDbLine
 10
714.134766
 20
113.468933
 30
0.0
 11
715.134766
 21
113.468933
 31
0.0
210
0.0
220
0.0
230
1.0
  0
LINE
  5
2A8
100
AcDbEntity
  8
0
 62
     7
100
AcDbLine
 10
714.134766
 20
63.468933
 30
0.0
 11
714.134766
 21
113.468933
 31
0.0
210
0.0
220
0.0
230
1.0
  0
LINE
  5
2A9
100
AcDbEntity
  8
0
 62
     7
100
AcDbLine
 10
715.134766
 20
63.468933
 30
0.0
 11
715.134766
 21
113.468933
 31
0.0
210
0.0
220
0.0
230
1.0
  0
LINE
  5
2AA
100
AcDbEntity
  8
0
 62
     7
 48
0.025
100
AcDbLine
 10
990.134766
 20
785.468933
 30
0.0
 11
990.134766
 21
786.468933
 31
0.0
210
0.0
220
0.0
230
1.0
  0
LINE
  5
2AB
100
AcDbEntity
  8
0
 62
     7
 48
0.025
100
AcDbLine
 10
940.134766
 20
785.468933
 30
0.0
 11
940.134766
 21
786.468933
 31
0.0
210
0.0
220
0.0
230
1.0
  0
LINE
  5
2AC
100
AcDbEntity
  8
0
 62
     7
100
AcDbLine
 10
990.134766
 20
785.468933
 30
0.0
 11
940.134766
 21
785.468933
 31
0.0
210
0.0
220
0.0
230
1.0
  0
LINE
  5
2AD
100
AcDbEntity
  8
0
 62
     7
100
AcDbLine
 10
990.134766
 20
786.468933
 30
0.0
 11
940.134766
 21
786.468933
 31
0.0
210
0.0
220
0.0
230
1.0
  0
LINE
  5
2AE
100
AcDbEntity
  8
0
 62
     7
 48
0.025
100
AcDbLine
 10
990.134766
 20
62.468933
 30
0.0
 11
990.134766
 21
63.468933
 31
0.0
210
0.0
220
0.0
230
1.0
  0
LINE
  5
2AF
100
AcDbEntity
  8
0
 62
     7
 48
0.025
100
AcDbLine
 10
940.134766
 20
62.468933
 30
0.0
 11
940.134766
 21
63.468933
 31
0.0
210
0.0
220
0.0
230
1.0
  0
LINE
  5
2B0
100
AcDbEntity
  8
0
 62
     7
100
AcDbLine
 10
990.134766
 20
62.468933
 30
0.0
 11
940.134766
 21
62.468933
 31
0.0
210
0.0
220
0.0
230
1.0
  0
LINE
  5
2B1
100
AcDbEntity
  8
0
 62
     7
100
AcDbLine
 10
990.134766
 20
63.468933
 30
0.0
 11
940.134766
 21
63.468933
 31
0.0
210
0.0
220
0.0
230
1.0
  0
LINE
  5
2B2
100
AcDbEntity
  8
0
 62
     7
100
AcDbLine
 10
1339.180298
 20
113.468933
 30
0.0
 11
1339.180298
 21
785.468933
 31
0.0
210
0.0
220
0.0
230
1.0
  0
LINE
  5
2B3
100
AcDbEntity
  8
0
 62
     7
100
AcDbLine
 10
1289.180298
 20
113.468933
 30
0.0
 11
1289.180298
 21
785.468933
 31
0.0
210
0.0
220
0.0
230
1.0
  0
LINE
  5
2B4
100
AcDbEntity
  8
0
 62
     7
100
AcDbLine
 10
1289.180298
 20
785.468933
 30
0.0
 11
1339.180298
 21
785.468933
 31
0.0
210
0.0
220
0.0
230
1.0
  0
ARC
  5
2B5
100
AcDbEntity
  8
0
 62
     7
100
AcDbCircle
 10
1342.180298
 20
58.468937
 30
0.0
 40
4.0
210
0.0
220
0.0
230
1.0
100
AcDbArc
 50
0.0
 51
90.000003
  0
ARC
  5
2B6
100
AcDbEntity
  8
0
 62
     7
100
AcDbCircle
 10
1342.180298
 20
58.468937
 30
0.0
 40
2.0
210
0.0
220
0.0
230
1.0
100
AcDbArc
 50
0.0
 51
90.000003
  0
LINE
  5
2B7
100
AcDbEntity
  8
0
 62
     7
100
AcDbLine
 10
1291.180298
 20
60.468937
 30
0.0
 11
1342.180298
 21
60.468937
 31
0.0
210
0.0
220
0.0
230
1.0
  0
LINE
  5
2B8
100
AcDbEntity
  8
0
 62
     7
 48
0.05
100
AcDbLine
 10
1291.180298
 20
60.468937
 30
0.0
 11
1289.180298
 21
60.468937
 31
0.0
210
0.0
220
0.0
230
1.0
  0
LINE
  5
2B9
100
AcDbEntity
  8
0
 62
     7
100
AcDbLine
 10
1291.180298
 20
62.468937
 30
0.0
 11
1342.180298
 21
62.468937
 31
0.0
210
0.0
220
0.0
230
1.0
  0
LINE
  5
2BA
100
AcDbEntity
  8
0
 62
     7
 48
0.05
100
AcDbLine
 10
1289.180298
 20
60.468937
 30
0.0
 11
1289.180298
 21
62.468937
 31
0.0
210
0.0
220
0.0
230
1.0
  0
LINE
  5
2BB
100
AcDbEntity
  8
0
 62
     7
 48
0.05
100
AcDbLine
 10
1346.180298
 20
32.468933
 30
0.0
 11
1344.180298
 21
32.468933
 31
0.0
210
0.0
220
0.0
230
1.0
  0
LINE
  5
2BC
100
AcDbEntity
  8
0
 62
     7
100
AcDbLine
 10
1344.180298
 20
58.468937
 30
0.0
 11
1344.180298
 21
34.468933
 31
0.0
210
0.0
220
0.0
230
1.0
  0
LINE
  5
2BD
100
AcDbEntity
  8
0
 62
     7
100
AcDbLine
 10
1346.180298
 20
58.468937
 30
0.0
 11
1346.180298
 21
34.468933
 31
0.0
210
0.0
220
0.0
230
1.0
  0
LINE
  5
2BE
100
AcDbEntity
  8
0
 62
     7
 48
0.05
100
AcDbLine
 10
1344.180298
 20
32.468933
 30
0.0
 11
1344.180298
 21
34.468933
 31
0.0
210
0.0
220
0.0
230
1.0
  0
LINE
  5
2BF
100
AcDbEntity
  8
0
 62
     7
 48
0.05
100
AcDbLine
 10
1346.180298
 20
32.468933
 30
0.0
 11
1346.180298
 21
34.468933
 31
0.0
210
0.0
220
0.0
230
1.0
  0
ARC
  5
2C0
100
AcDbEntity
  8
0
 62
     7
100
AcDbCircle
 10
1342.180298
 20
790.468933
 30
0.0
 40
4.0
210
0.0
220
0.0
230
1.0
100
AcDbArc
 50
269.999997
 51
360.0
  0
ARC
  5
2C1
100
AcDbEntity
  8
0
 62
     7
100
AcDbCircle
 10
1342.180298
 20
790.468933
 30
0.0
 40
2.0
210
0.0
220
0.0
230
1.0
100
AcDbArc
 50
269.999997
 51
360.0
  0
LINE
  5
2C2
100
AcDbEntity
  8
0
 62
     7
 48
0.05
100
AcDbLine
 10
1289.180298
 20
788.468933
 30
0.0
 11
1291.180298
 21
788.468933
 31
0.0
210
0.0
220
0.0
230
1.0
  0
LINE
  5
2C3
100
AcDbEntity
  8
0
 62
     7
 48
0.05
100
AcDbLine
 10
1289.180298
 20
788.468933
 30
0.0
 11
1289.180298
 21
786.468933
 31
0.0
210
0.0
220
0.0
230
1.0
  0
LINE
  5
2C4
100
AcDbEntity
  8
0
 62
     7
100
AcDbLine
 10
1291.180298
 20
788.468933
 30
0.0
 11
1342.180298
 21
788.468933
 31
0.0
210
0.0
220
0.0
230
1.0
  0
LINE
  5
2C5
100
AcDbEntity
  8
0
 62
     7
100
AcDbLine
 10
1291.180298
 20
786.468933
 30
0.0
 11
1342.180298
 21
786.468933
 31
0.0
210
0.0
220
0.0
230
1.0
  0
LINE
  5
2C6
100
AcDbEntity
  8
0
 62
     7
 48
0.05
100
AcDbLine
 10
1346.180298
 20
816.468933
 30
0.0
 11
1344.180298
 21
816.468933
 31
0.0
210
0.0
220
0.0
230
1.0
  0
LINE
  5
2C7
100
AcDbEntity
  8
0
 62
     7
100
AcDbLine
 10
1344.180298
 20
790.468933
 30
0.0
 11
1344.180298
 21
814.468933
 31
0.0
210
0.0
220
0.0
230
1.0
  0
LINE
  5
2C8
100
AcDbEntity
  8
0
 62
     7
100
AcDbLine
 10
1346.180298
 20
790.468933
 30
0.0
 11
1346.180298
 21
814.468933
 31
0.0
210
0.0
220
0.0
230
1.0
  0
LINE
  5
2C9
100
AcDbEntity
  8
0
 62
     7
 48
0.05
100
AcDbLine
 10
1346.180298
 20
814.468933
 30
0.0
 11
1346.180298
 21
816.468933
 31
0.0
210
0.0
220
0.0
230
1.0
  0
LINE
  5
2CA
100
AcDbEntity
  8
0
 62
     7
 48
0.05
100
AcDbLine
 10
1344.180298
 20
814.468933
 30
0.0
 11
1344.180298
 21
816.468933
 31
0.0
210
0.0
220
0.0
230
1.0
  0
LINE
  5
2CB
100
AcDbEntity
  8
0
 62
     7
100
AcDbLine
 10
1294.180298
 20
298.468933
 30
0.0
 11
1334.180298
 21
298.468933
 31
0.0
210
0.0
220
0.0
230
1.0
  0
LINE
  5
2CC
100
AcDbEntity
  8
0
 62
     7
100
AcDbLine
 10
1294.180298
 20
183.468933
 30
0.0
 11
1294.180298
 21
298.468933
 31
0.0
210
0.0
220
0.0
230
1.0
  0
LINE
  5
2CD
100
AcDbEntity
  8
0
 62
     7
 48
0.4375
100
AcDbLine
 10
1311.680298
 20
183.468933
 30
0.0
 11
1294.180298
 21
183.468933
 31
0.0
210
0.0
220
0.0
230
1.0
  0
LINE
  5
2CE
100
AcDbEntity
  8
0
 62
     7
 48
0.4375
100
AcDbLine
 10
1334.180298
 20
183.468933
 30
0.0
 11
1316.680298
 21
183.468933
 31
0.0
210
0.0
220
0.0
230
1.0
  0
LINE
  5
2CF
100
AcDbEntity
  8
0
 62
     7
100
AcDbLine
 10
1334.180298
 20
298.468933
 30
0.0
 11
1334.180298
 21
183.468933
 31
0.0
210
0.0
220
0.0
230
1.0
  0
CIRCLE
  5
2D0
100
AcDbEntity
  8
0
 62
     7
100
AcDbCircle
 10
1299.130249
 20
292.918945
 30
0.0
 40
2.25
210
0.0
220
0.0
230
1.0
  0
CIRCLE
  5
2D1
100
AcDbEntity
  8
0
 62
     7
100
AcDbCircle
 10
1329.230347
 20
292.918945
 30
0.0
 40
2.25
210
0.0
220
0.0
230
1.0
  0
CIRCLE
  5
2D2
100
AcDbEntity
  8
0
 62
     7
100
AcDbCircle
 10
1329.230347
 20
240.968933
 30
0.0
 40
2.25
210
0.0
220
0.0
230
1.0
  0
CIRCLE
  5
2D3
100
AcDbEntity
  8
0
 62
     7
100
AcDbCircle
 10
1299.130249
 20
240.968933
 30
0.0
 40
2.25
210
0.0
220
0.0
230
1.0
  0
CIRCLE
  5
2D4
100
AcDbEntity
  8
0
 62
     7
100
AcDbCircle
 10
1329.230347
 20
189.018936
 30
0.0
 40
2.25
210
0.0
220
0.0
230
1.0
  0
CIRCLE
  5
2D5
100
AcDbEntity
  8
0
 62
     7
100
AcDbCircle
 10
1299.130249
 20
189.018936
 30
0.0
 40
2.25
210
0.0
220
0.0
230
1.0
  0
LINE
  5
2D6
100
AcDbEntity
  8
0
 62
     7
 48
0.418579
100
AcDbLine
 10
1305.808716
 20
262.968933
 30
0.0
 11
1322.55188
 21
262.968933
 31
0.0
210
0.0
220
0.0
230
1.0
  0
LINE
  5
2D7
100
AcDbEntity
  8
0
 62
     7
 48
0.418579
100
AcDbLine
 10
1297.437134
 20
277.468933
 30
0.0
 11
1305.808716
 21
262.968933
 31
0.0
210
0.0
220
0.0
230
1.0
  0
LINE
  5
2D8
100
AcDbEntity
  8
0
 62
     7
 48
0.418579
100
AcDbLine
 10
1305.808716
 20
291.968933
 30
0.0
 11
1297.437134
 21
277.468933
 31
0.0
210
0.0
220
0.0
230
1.0
  0
LINE
  5
2D9
100
AcDbEntity
  8
0
 62
     7
 48
0.418579
100
AcDbLine
 10
1322.55188
 20
291.968933
 30
0.0
 11
1305.808716
 21
291.968933
 31
0.0
210
0.0
220
0.0
230
1.0
  0
LINE
  5
2DA
100
AcDbEntity
  8
0
 62
     7
 48
0.418579
100
AcDbLine
 10
1330.923462
 20
277.468933
 30
0.0
 11
1322.55188
 21
291.968933
 31
0.0
210
0.0
220
0.0
230
1.0
  0
LINE
  5
2DB
100
AcDbEntity
  8
0
 62
     7
 48
0.418579
100
AcDbLine
 10
1322.55188
 20
262.968933
 30
0.0
 11
1330.923462
 21
277.468933
 31
0.0
210
0.0
220
0.0
230
1.0
  0
CIRCLE
  5
2DC
100
AcDbEntity
  8
0
 62
     7
100
AcDbCircle
 10
1311.257446
 20
279.156433
 30
0.0
 40
0.425
210
0.0
220
0.0
230
1.0
  0
CIRCLE
  5
2DD
100
AcDbEntity
  8
0
 62
     7
100
AcDbCircle
 10
1317.103149
 20
275.781433
 30
0.0
 40
0.425
210
0.0
220
0.0
230
1.0
  0
CIRCLE
  5
2DE
100
AcDbEntity
  8
0
 62
     7
100
AcDbCircle
 10
1314.180298
 20
274.093933
 30
0.0
 40
0.425
210
0.0
220
0.0
230
1.0
  0
CIRCLE
  5
2DF
100
AcDbEntity
  8
0
 62
     7
100
AcDbCircle
 10
1320.026001
 20
277.468933
 30
0.0
 40
0.425
210
0.0
220
0.0
230
1.0
  0
CIRCLE
  5
2E0
100
AcDbEntity
  8
0
 62
     7
100
AcDbCircle
 10
1314.180298
 20
280.843933
 30
0.0
 40
0.425
210
0.0
220
0.0
230
1.0
  0
CIRCLE
  5
2E1
100
AcDbEntity
  8
0
 62
     7
100
AcDbCircle
 10
1317.103149
 20
279.156433
 30
0.0
 40
0.425
210
0.0
220
0.0
230
1.0
  0
CIRCLE
  5
2E2
100
AcDbEntity
  8
0
 62
     7
100
AcDbCircle
 10
1320.026001
 20
274.093933
 30
0.0
 40
0.425
210
0.0
220
0.0
230
1.0
  0
CIRCLE
  5
2E3
100
AcDbEntity
  8
0
 62
     7
100
AcDbCircle
 10
1311.257446
 20
275.781433
 30
0.0
 40
0.425
210
0.0
220
0.0
230
1.0
  0
CIRCLE
  5
2E4
100
AcDbEntity
  8
0
 62
     7
100
AcDbCircle
 10
1311.257446
 20
272.406433
 30
0.0
 40
0.425
210
0.0
220
0.0
230
1.0
  0
CIRCLE
  5
2E5
100
AcDbEntity
  8
0
 62
     7
100
AcDbCircle
 10
1311.257446
 20
282.531433
 30
0.0
 40
0.425
210
0.0
220
0.0
230
1.0
  0
CIRCLE
  5
2E6
100
AcDbEntity
  8
0
 62
     7
100
AcDbCircle
 10
1317.103149
 20
272.406433
 30
0.0
 40
0.425
210
0.0
220
0.0
230
1.0
  0
CIRCLE
  5
2E7
100
AcDbEntity
  8
0
 62
     7
100
AcDbCircle
 10
1314.180298
 20
277.468933
 30
0.0
 40
0.425
210
0.0
220
0.0
230
1.0
  0
CIRCLE
  5
2E8
100
AcDbEntity
  8
0
 62
     7
100
AcDbCircle
 10
1320.026001
 20
280.843933
 30
0.0
 40
0.425
210
0.0
220
0.0
230
1.0
  0
CIRCLE
  5
2E9
100
AcDbEntity
  8
0
 62
     7
100
AcDbCircle
 10
1308.334595
 20
280.843933
 30
0.0
 40
0.425
210
0.0
220
0.0
230
1.0
  0
CIRCLE
  5
2EA
100
AcDbEntity
  8
0
 62
     7
100
AcDbCircle
 10
1314.180298
 20
270.718933
 30
0.0
 40
0.425
210
0.0
220
0.0
230
1.0
  0
CIRCLE
  5
2EB
100
AcDbEntity
  8
0
 62
     7
100
AcDbCircle
 10
1308.334595
 20
274.093933
 30
0.0
 40
0.425
210
0.0
220
0.0
230
1.0
  0
CIRCLE
  5
2EC
100
AcDbEntity
  8
0
 62
     7
100
AcDbCircle
 10
1308.334595
 20
277.468933
 30
0.0
 40
0.425
210
0.0
220
0.0
230
1.0
  0
CIRCLE
  5
2ED
100
AcDbEntity
  8
0
 62
     7
100
AcDbCircle
 10
1314.180298
 20
284.218933
 30
0.0
 40
0.425
210
0.0
220
0.0
230
1.0
  0
ARC
  5
2EE
100
AcDbEntity
  8
0
 62
     7
100
AcDbCircle
 10
1318.180298
 20
284.397156
 30
0.0
 40
0.8
210
0.0
220
0.0
230
1.0
100
AcDbArc
 50
149.999997
 51
329.999999
  0
CIRCLE
  5
2EF
100
AcDbEntity
  8
0
 62
     7
100
AcDbCircle
 10
1314.180298
 20
277.468933
 30
0.0
 40
11.45
210
0.0
220
0.0
230
1.0
  0
LINE
  5
2F0
100
AcDbEntity
  8
0
 62
     7
 48
0.030384
100
AcDbLine
 10
1317.487427
 20
284.797119
 30
0.0
 11
1318.095093
 21
285.84967
 31
0.0
210
0.0
220
0.0
230
1.0
  0
LINE
  5
2F1
100
AcDbEntity
  8
0
 62
     7
 48
0.030384
100
AcDbLine
 10
1318.873169
 20
283.997131
 30
0.0
 11
1319.480835
 21
285.049652
 31
0.0
210
0.0
220
0.0
230
1.0
  0
CIRCLE
  5
2F2
100
AcDbEntity
  8
0
 62
     7
100
AcDbCircle
 10
1314.180298
 20
277.468933
 30
0.0
 40
9.25
210
0.0
220
0.0
230
1.0
  0
LINE
  5
2F3
100
AcDbEntity
  8
0
 62
     7
 48
0.086166
100
AcDbLine
 10
1308.233643
 20
213.16893
 30
0.0
 11
1311.680298
 21
213.16893
 31
0.0
210
0.0
220
0.0
230
1.0
  0
LINE
  5
2F4
100
AcDbEntity
  8
0
 62
     7
 48
0.086166
100
AcDbLine
 10
1316.680298
 20
213.16893
 30
0.0
 11
1320.126953
 21
213.16893
 31
0.0
210
0.0
220
0.0
230
1.0
  0
LINE
  5
2F5
100
AcDbEntity
  8
0
 62
     7
 48
0.297336
100
AcDbLine
 10
1320.126953
 20
213.16893
 30
0.0
 11
1326.07373
 21
223.468933
 31
0.0
210
0.0
220
0.0
230
1.0
  0
LINE
  5
2F6
100
AcDbEntity
  8
0
 62
     7
 48
0.297336
100
AcDbLine
 10
1326.07373
 20
223.468933
 30
0.0
 11
1320.126953
 21
233.768936
 31
0.0
210
0.0
220
0.0
230
1.0
  0
LINE
  5
2F7
100
AcDbEntity
  8
0
 62
     7
 48
0.297333
100
AcDbLine
 10
1320.126953
 20
233.768936
 30
0.0
 11
1308.233643
 21
233.768936
 31
0.0
210
0.0
220
0.0
230
1.0
  0
LINE
  5
2F8
100
AcDbEntity
  8
0
 62
     7
 48
0.297336
100
AcDbLine
 10
1308.233643
 20
233.768936
 30
0.0
 11
1302.286865
 21
223.468933
 31
0.0
210
0.0
220
0.0
230
1.0
  0
LINE
  5
2F9
100
AcDbEntity
  8
0
 62
     7
 48
0.297336
100
AcDbLine
 10
1302.286865
 20
223.468933
 30
0.0
 11
1308.233643
 21
213.16893
 31
0.0
210
0.0
220
0.0
230
1.0
  0
LINE
  5
2FA
100
AcDbEntity
  8
0
 62
     7
 48
0.086166
100
AcDbLine
 10
1308.233643
 20
188.16893
 30
0.0
 11
1311.680298
 21
188.16893
 31
0.0
210
0.0
220
0.0
230
1.0
  0
LINE
  5
2FB
100
AcDbEntity
  8
0
 62
     7
 48
0.086166
100
AcDbLine
 10
1316.680298
 20
188.16893
 30
0.0
 11
1320.126953
 21
188.16893
 31
0.0
210
0.0
220
0.0
230
1.0
  0
LINE
  5
2FC
100
AcDbEntity
  8
0
 62
     7
 48
0.297336
100
AcDbLine
 10
1320.126953
 20
188.16893
 30
0.0
 11
1326.07373
 21
198.468933
 31
0.0
210
0.0
220
0.0
230
1.0
  0
LINE
  5
2FD
100
AcDbEntity
  8
0
 62
     7
 48
0.297336
100
AcDbLine
 10
1326.07373
 20
198.468933
 30
0.0
 11
1320.126953
 21
208.768936
 31
0.0
210
0.0
220
0.0
230
1.0
  0
LINE
  5
2FE
100
AcDbEntity
  8
0
 62
     7
 48
0.086166
100
AcDbLine
 10
1320.126953
 20
208.768936
 30
0.0
 11
1316.680298
 21
208.768936
 31
0.0
210
0.0
220
0.0
230
1.0
  0
LINE
  5
2FF
100
AcDbEntity
  8
0
 62
     7
 48
0.086166
100
AcDbLine
 10
1311.680298
 20
208.768936
 30
0.0
 11
1308.233643
 21
208.768936
 31
0.0
210
0.0
220
0.0
230
1.0
  0
LINE
  5
300
100
AcDbEntity
  8
0
 62
     7
 48
0.297336
100
AcDbLine
 10
1308.233643
 20
208.768936
 30
0.0
 11
1302.286865
 21
198.468933
 31
0.0
210
0.0
220
0.0
230
1.0
  0
LINE
  5
301
100
AcDbEntity
  8
0
 62
     7
 48
0.297336
100
AcDbLine
 10
1302.286865
 20
198.468933
 30
0.0
 11
1308.233643
 21
188.16893
 31
0.0
210
0.0
220
0.0
230
1.0
  0
CIRCLE
  5
302
100
AcDbEntity
  8
0
 62
     7
100
AcDbCircle
 10
1314.180298
 20
248.468933
 30
0.0
 40
5.9
210
0.0
220
0.0
230
1.0
  0
CIRCLE
  5
303
100
AcDbEntity
  8
0
 62
     7
100
AcDbCircle
 10
1314.180298
 20
248.468933
 30
0.0
 40
7.0
210
0.0
220
0.0
230
1.0
  0
LINE
  5
304
100
AcDbEntity
  8
0
 62
     7
 48
0.015485
100
AcDbLine
 10
1317.634644
 20
253.251999
 30
0.0
 11
1317.324951
 21
252.715561
 31
0.0
210
0.0
220
0.0
230
1.0
  0
LINE
  5
305
100
AcDbEntity
  8
0
 62
     7
 48
0.015485
100
AcDbLine
 10
1316.285645
 20
253.315567
 30
0.0
 11
1316.595337
 21
253.85199
 31
0.0
210
0.0
220
0.0
230
1.0
  0
ARC
  5
306
100
AcDbEntity
  8
0
 62
     7
100
AcDbCircle
 10
1316.805298
 20
253.015564
 30
0.0
 40
0.6
210
0.0
220
0.0
230
1.0
100
AcDbArc
 50
149.999997
 51
329.999999
  0
CIRCLE
  5
307
100
AcDbEntity
  8
0
 62
     7
100
AcDbCircle
 10
1315.980347
 20
251.586624
 30
0.0
 40
0.4
210
0.0
220
0.0
230
1.0
  0
CIRCLE
  5
308
100
AcDbEntity
  8
0
 62
     7
100
AcDbCircle
 10
1314.180298
 20
248.468933
 30
0.0
 40
0.4
210
0.0
220
0.0
230
1.0
  0
CIRCLE
  5
309
100
AcDbEntity
  8
0
 62
     7
100
AcDbCircle
 10
1317.740112
 20
249.005478
 30
0.0
 40
0.4
210
0.0
220
0.0
230
1.0
  0
CIRCLE
  5
30A
100
AcDbEntity
  8
0
 62
     7
100
AcDbCircle
 10
1316.819336
 20
246.020309
 30
0.0
 40
0.4
210
0.0
220
0.0
230
1.0
  0
CIRCLE
  5
30B
100
AcDbEntity
  8
0
 62
     7
100
AcDbCircle
 10
1313.911255
 20
244.878998
 30
0.0
 40
0.4
210
0.0
220
0.0
230
1.0
  0
CIRCLE
  5
30C
100
AcDbEntity
  8
0
 62
     7
100
AcDbCircle
 10
1311.205811
 20
246.440979
 30
0.0
 40
0.4
210
0.0
220
0.0
230
1.0
  0
CIRCLE
  5
30D
100
AcDbEntity
  8
0
 62
     7
100
AcDbCircle
 10
1310.740234
 20
249.530045
 30
0.0
 40
0.4
210
0.0
220
0.0
230
1.0
  0
CIRCLE
  5
30E
100
AcDbEntity
  8
0
 62
     7
100
AcDbCircle
 10
1312.865112
 20
251.820084
 30
0.0
 40
0.4
210
0.0
220
0.0
230
1.0
  0
LINE
  5
30F
100
AcDbEntity
  8
0
 62
     7
 48
0.27424
100
AcDbLine
 10
1319.665161
 20
238.968933
 30
0.0
 11
1325.149902
 21
248.468933
 31
0.0
210
0.0
220
0.0
230
1.0
  0
LINE
  5
310
100
AcDbEntity
  8
0
 62
     7
 48
0.27424
100
AcDbLine
 10
1325.149902
 20
248.468933
 30
0.0
 11
1319.665161
 21
257.968933
 31
0.0
210
0.0
220
0.0
230
1.0
  0
LINE
  5
311
100
AcDbEntity
  8
0
 62
     7
 48
0.274243
100
AcDbLine
 10
1319.665161
 20
257.968933
 30
0.0
 11
1308.695435
 21
257.968933
 31
0.0
210
0.0
220
0.0
230
1.0
  0
LINE
  5
312
100
AcDbEntity
  8
0
 62
     7
 48
0.27424
100
AcDbLine
 10
1308.695435
 20
257.968933
 30
0.0
 11
1303.210693
 21
248.468933
 31
0.0
210
0.0
220
0.0
230
1.0
  0
LINE
  5
313
100
AcDbEntity
  8
0
 62
     7
 48
0.27424
100
AcDbLine
 10
1303.210693
 20
248.468933
 30
0.0
 11
1308.695435
 21
238.968933
 31
0.0
210
0.0
220
0.0
230
1.0
  0
LINE
  5
314
100
AcDbEntity
  8
0
 62
     7
 48
0.274243
100
AcDbLine
 10
1308.695435
 20
238.968933
 30
0.0
 11
1319.665161
 21
238.968933
 31
0.0
210
0.0
220
0.0
230
1.0
  0
LINE
  5
315
100
AcDbEntity
  8
0
 62
     7
 48
0.05
100
AcDbLine
 10
1289.180298
 20
113.468933
 30
0.0
 11
1291.180298
 21
113.468933
 31
0.0
210
0.0
220
0.0
230
1.0
  0
CIRCLE
  5
316
100
AcDbEntity
  8
0
 62
     7
100
AcDbCircle
 10
1314.180298
 20
105.908936
 30
0.0
 40
2.5
210
0.0
220
0.0
230
1.0
  0
LINE
  5
317
100
AcDbEntity
  8
0
 62
     7
 48
0.05
100
AcDbLine
 10
1344.180298
 20
91.718933
 30
0.0
 11
1346.180298
 21
91.718933
 31
0.0
210
0.0
220
0.0
230
1.0
  0
LINE
  5
318
100
AcDbEntity
  8
0
 62
     7
 48
0.05
100
AcDbLine
 10
1344.180298
 20
85.218933
 30
0.0
 11
1346.180298
 21
85.218933
 31
0.0
210
0.0
220
0.0
230
1.0
  0
LINE
  5
319
100
AcDbEntity
  8
0
 62
     7
 48
0.1625
100
AcDbLine
 10
1346.180298
 20
85.218933
 30
0.0
 11
1346.180298
 21
91.718933
 31
0.0
210
0.0
220
0.0
230
1.0
  0
LINE
  5
31A
100
AcDbEntity
  8
0
 62
     7
 48
0.1625
100
AcDbLine
 10
1344.180298
 20
91.718933
 30
0.0
 11
1344.180298
 21
85.218933
 31
0.0
210
0.0
220
0.0
230
1.0
  0
CIRCLE
  5
31B
100
AcDbEntity
  8
0
 62
     7
100
AcDbCircle
 10
1314.180298
 20
71.028931
 30
0.0
 40
2.5
210
0.0
220
0.0
230
1.0
  0
LINE
  5
31C
100
AcDbEntity
  8
0
 62
     7
 48
0.05
100
AcDbLine
 10
1342.180298
 20
113.468933
 30
0.0
 11
1344.180298
 21
113.468933
 31
0.0
210
0.0
220
0.0
230
1.0
  0
LINE
  5
31D
100
AcDbEntity
  8
0
 62
     7
 48
0.05
100
AcDbLine
 10
1342.180298
 20
63.468933
 30
0.0
 11
1344.180298
 21
63.468933
 31
0.0
210
0.0
220
0.0
230
1.0
  0
ARC
  5
31E
100
AcDbEntity
  8
0
 62
     7
100
AcDbCircle
 10
1291.180298
 20
65.468933
 30
0.0
 40
2.0
210
0.0
220
0.0
230
1.0
100
AcDbArc
 50
180.000005
 51
269.999997
  0
LINE
  5
31F
100
AcDbEntity
  8
0
 62
     7
100
AcDbLine
 10
1291.180298
 20
113.468933
 30
0.0
 11
1342.180298
 21
113.468933
 31
0.0
210
0.0
220
0.0
230
1.0
  0
LINE
  5
320
100
AcDbEntity
  8
0
 62
     7
100
AcDbLine
 10
1291.180298
 20
63.468933
 30
0.0
 11
1342.180298
 21
63.468933
 31
0.0
210
0.0
220
0.0
230
1.0
  0
LINE
  5
321
100
AcDbEntity
  8
0
 62
     7
100
AcDbLine
 10
1289.180298
 20
111.468933
 30
0.0
 11
1289.180298
 21
65.468933
 31
0.0
210
0.0
220
0.0
230
1.0
  0
ARC
  5
322
100
AcDbEntity
  8
0
 62
     7
100
AcDbCircle
 10
1291.180298
 20
111.468933
 30
0.0
 40
2.0
210
0.0
220
0.0
230
1.0
100
AcDbArc
 50
90.000003
 51
180.000005
  0
LINE
  5
323
100
AcDbEntity
  8
0
 62
     7
 48
0.49375
100
AcDbLine
 10
1344.180298
 20
111.468933
 30
0.0
 11
1344.180298
 21
91.718933
 31
0.0
210
0.0
220
0.0
230
1.0
  0
LINE
  5
324
100
AcDbEntity
  8
0
 62
     7
 48
0.49375
100
AcDbLine
 10
1346.180298
 20
111.468933
 30
0.0
 11
1346.180298
 21
91.718933
 31
0.0
210
0.0
220
0.0
230
1.0
  0
LINE
  5
325
100
AcDbEntity
  8
0
 62
     7
 48
0.05
100
AcDbLine
 10
1346.180298
 20
113.468933
 30
0.0
 11
1344.180298
 21
113.468933
 31
0.0
210
0.0
220
0.0
230
1.0
  0
LINE
  5
326
100
AcDbEntity
  8
0
 62
     7
 48
0.05
100
AcDbLine
 10
1344.180298
 20
111.468933
 30
0.0
 11
1344.180298
 21
113.468933
 31
0.0
210
0.0
220
0.0
230
1.0
  0
LINE
  5
327
100
AcDbEntity
  8
0
 62
     7
 48
0.05
100
AcDbLine
 10
1346.180298
 20
111.468933
 30
0.0
 11
1346.180298
 21
113.468933
 31
0.0
210
0.0
220
0.0
230
1.0
  0
LINE
  5
328
100
AcDbEntity
  8
0
 62
     7
 48
0.49375
100
AcDbLine
 10
1346.180298
 20
85.218933
 30
0.0
 11
1346.180298
 21
65.468933
 31
0.0
210
0.0
220
0.0
230
1.0
  0
LINE
  5
329
100
AcDbEntity
  8
0
 62
     7
 48
0.49375
100
AcDbLine
 10
1344.180298
 20
85.218933
 30
0.0
 11
1344.180298
 21
65.468933
 31
0.0
210
0.0
220
0.0
230
1.0
  0
LINE
  5
32A
100
AcDbEntity
  8
0
 62
     7
 48
0.05
100
AcDbLine
 10
1346.180298
 20
63.468933
 30
0.0
 11
1344.180298
 21
63.468933
 31
0.0
210
0.0
220
0.0
230
1.0
  0
LINE
  5
32B
100
AcDbEntity
  8
0
 62
     7
 48
0.05
100
AcDbLine
 10
1346.180298
 20
63.468933
 30
0.0
 11
1346.180298
 21
65.468933
 31
0.0
210
0.0
220
0.0
230
1.0
  0
LINE
  5
32C
100
AcDbEntity
  8
0
 62
     7
 48
0.05
100
AcDbLine
 10
1344.180298
 20
63.468933
 30
0.0
 11
1344.180298
 21
65.468933
 31
0.0
210
0.0
220
0.0
230
1.0
  0
ARC
  5
32D
100
AcDbEntity
  8
0
 62
     7
100
AcDbCircle
 10
1314.180298
 20
223.468933
 30
0.0
 40
2.5
210
0.0
220
0.0
230
1.0
100
AcDbArc
 50
0.0
 51
179.999995
  0
ARC
  5
32E
100
AcDbEntity
  8
0
 62
     7
100
AcDbCircle
 10
1314.180298
 20
223.468933
 30
0.0
 40
5.85
210
0.0
220
0.0
230
1.0
100
AcDbArc
 50
298.647887
 51
244.700342
  0
ARC
  5
32F
100
AcDbEntity
  8
0
 62
     7
100
AcDbCircle
 10
1314.180298
 20
223.468933
 30
0.0
 40
5.85
210
0.0
220
0.0
230
1.0
100
AcDbArc
 50
295.299394
 51
298.647887
  0
ARC
  5
330
100
AcDbEntity
  8
0
 62
     7
100
AcDbCircle
 10
1314.180298
 20
223.468933
 30
0.0
 40
9.1
210
0.0
220
0.0
230
1.0
100
AcDbArc
 50
285.945621
 51
254.054347
  0
ARC
  5
331
100
AcDbEntity
  8
0
 62
     7
100
AcDbCircle
 10
1314.180298
 20
223.468933
 30
0.0
 40
7.5
210
0.0
220
0.0
230
1.0
100
AcDbArc
 50
289.4712
 51
250.528767
  0
ARC
  5
332
100
AcDbEntity
  8
0
 62
     7
100
AcDbCircle
 10
1314.180298
 20
223.468933
 30
0.0
 40
7.5
210
0.0
220
0.0
230
1.0
100
AcDbArc
 50
298.647887
 51
118.647885
  0
LINE
  5
333
100
AcDbEntity
  8
0
 62
     7
 48
0.45
100
AcDbLine
 10
1316.680298
 20
205.468933
 30
0.0
 11
1316.680298
 21
223.468933
 31
0.0
210
0.0
220
0.0
230
1.0
  0
LINE
  5
334
100
AcDbEntity
  8
0
 62
     7
 48
0.45
100
AcDbLine
 10
1311.680298
 20
205.468933
 30
0.0
 11
1311.680298
 21
223.468933
 31
0.0
210
0.0
220
0.0
230
1.0
  0
LINE
  5
335
100
AcDbEntity
  8
0
 62
     7
100
AcDbLine
 10
1316.680298
 20
177.468933
 30
0.0
 11
1316.680298
 21
205.468933
 31
0.0
210
0.0
220
0.0
230
1.0
  0
LINE
  5
336
100
AcDbEntity
  8
0
 62
     7
 48
0.174938
100
AcDbLine
 10
1311.680298
 20
198.471405
 30
0.0
 11
1311.680298
 21
205.468933
 31
0.0
210
0.0
220
0.0
230
1.0
  0
LINE
  5
337
100
AcDbEntity
  8
0
 62
     7
 48
0.45
100
AcDbLine
 10
1316.680298
 20
159.468933
 30
0.0
 11
1316.680298
 21
177.468933
 31
0.0
210
0.0
220
0.0
230
1.0
  0
LINE
  5
338
100
AcDbEntity
  8
0
 62
     7
100
AcDbLine
 10
1316.680298
 20
159.468933
 30
0.0
 11
1316.680298
 21
139.468933
 31
0.0
210
0.0
220
0.0
230
1.0
  0
LINE
  5
339
100
AcDbEntity
  8
0
 62
     7
 48
0.15
100
AcDbLine
 10
1316.680298
 20
133.468933
 30
0.0
 11
1316.680298
 21
139.468933
 31
0.0
210
0.0
220
0.0
230
1.0
  0
ARC
  5
33A
100
AcDbEntity
  8
0
 62
     7
100
AcDbCircle
 10
1310.280273
 20
130.468933
 30
0.0
 40
3.0
210
0.0
220
0.0
230
1.0
100
AcDbArc
 50
90.000003
 51
179.999995
  0
LINE
  5
33B
100
AcDbEntity
  8
0
 62
     7
 48
0.02
100
AcDbLine
 10
1321.080322
 20
130.468933
 30
0.0
 11
1321.080322
 21
129.66893
 31
0.0
210
0.0
220
0.0
230
1.0
  0
ARC
  5
33C
100
AcDbEntity
  8
0
 62
     7
100
AcDbCircle
 10
1318.080322
 20
130.468933
 30
0.0
 40
3.0
210
0.0
220
0.0
230
1.0
100
AcDbArc
 50
360.0
 51
90.000003
  0
ARC
  5
33D
100
AcDbEntity
  8
0
 62
     7
100
AcDbCircle
 10
1314.180298
 20
198.468933
 30
0.0
 40
2.5
210
0.0
220
0.0
230
1.0
100
AcDbArc
 50
0.0
 51
179.999995
  0
ARC
  5
33E
100
AcDbEntity
  8
0
 62
     7
100
AcDbCircle
 10
1314.180298
 20
150.468933
 30
0.0
 40
2.5
210
0.0
220
0.0
230
1.0
100
AcDbArc
 50
179.999995
 51
360.0
  0
LINE
  5
33F
100
AcDbEntity
  8
0
 62
     7
 48
0.144244
100
AcDbLine
 10
1312.310547
 20
133.468933
 30
0.0
 11
1318.080322
 21
133.468933
 31
0.0
210
0.0
220
0.0
230
1.0
  0
LINE
  5
340
100
AcDbEntity
  8
0
 62
     7
 48
0.050757
100
AcDbLine
 10
1310.280273
 20
133.468933
 30
0.0
 11
1312.310547
 21
133.468933
 31
0.0
210
0.0
220
0.0
230
1.0
  0
LINE
  5
341
100
AcDbEntity
  8
0
 62
     7
 48
0.405
100
AcDbLine
 10
1306.830322
 20
113.468933
 30
0.0
 11
1306.830322
 21
129.66893
 31
0.0
210
0.0
220
0.0
230
1.0
  0
LINE
  5
342
100
AcDbEntity
  8
0
 62
     7
 48
0.405
100
AcDbLine
 10
1314.180298
 20
113.468933
 30
0.0
 11
1314.180298
 21
129.66893
 31
0.0
210
0.0
220
0.0
230
1.0
  0
LINE
  5
343
100
AcDbEntity
  8
0
 62
     7
 48
0.183749
100
AcDbLine
 10
1306.830322
 20
129.66893
 30
0.0
 11
1314.180298
 21
129.66893
 31
0.0
210
0.0
220
0.0
230
1.0
  0
LINE
  5
344
100
AcDbEntity
  8
0
 62
     7
 48
0.405
100
AcDbLine
 10
1321.530273
 20
113.468933
 30
0.0
 11
1321.530273
 21
129.66893
 31
0.0
210
0.0
220
0.0
230
1.0
  0
LINE
  5
345
100
AcDbEntity
  8
0
 62
     7
 48
0.183749
100
AcDbLine
 10
1314.180298
 20
129.66893
 30
0.0
 11
1321.530273
 21
129.66893
 31
0.0
210
0.0
220
0.0
230
1.0
  0
ARC
  5
346
100
AcDbEntity
  8
0
 62
     7
100
AcDbCircle
 10
1314.180298
 20
198.468933
 30
0.0
 40
5.85
210
0.0
220
0.0
230
1.0
100
AcDbArc
 50
115.299699
 51
244.700301
  0
ARC
  5
347
100
AcDbEntity
  8
0
 62
     7
100
AcDbCircle
 10
1314.180298
 20
198.468933
 30
0.0
 40
5.85
210
0.0
220
0.0
230
1.0
100
AcDbArc
 50
295.29936
 51
64.70064
  0
ARC
  5
348
100
AcDbEntity
  8
0
 62
     7
100
AcDbCircle
 10
1314.180298
 20
198.468933
 30
0.0
 40
9.1
210
0.0
220
0.0
230
1.0
100
AcDbArc
 50
285.945429
 51
74.054571
  0
ARC
  5
349
100
AcDbEntity
  8
0
 62
     7
100
AcDbCircle
 10
1314.180298
 20
198.468933
 30
0.0
 40
9.1
210
0.0
220
0.0
230
1.0
100
AcDbArc
 50
105.945851
 51
254.054149
  0
ARC
  5
34A
100
AcDbEntity
  8
0
 62
     7
100
AcDbCircle
 10
1314.180298
 20
198.468933
 30
0.0
 40
7.5
210
0.0
220
0.0
230
1.0
100
AcDbArc
 50
289.471057
 51
70.528943
  0
ARC
  5
34B
100
AcDbEntity
  8
0
 62
     7
100
AcDbCircle
 10
1314.180298
 20
198.468933
 30
0.0
 40
7.5
210
0.0
220
0.0
230
1.0
100
AcDbArc
 50
109.471383
 51
250.528617
  0
ARC
  5
34C
100
AcDbEntity
  8
0
 62
     7
100
AcDbCircle
 10
1314.180298
 20
198.468933
 30
0.0
 40
7.5
210
0.0
220
0.0
230
1.0
100
AcDbArc
 50
298.647887
 51
70.528984
  0
ARC
  5
34D
100
AcDbEntity
  8
0
 62
     7
100
AcDbCircle
 10
1314.180298
 20
198.468933
 30
0.0
 40
7.5
210
0.0
220
0.0
230
1.0
100
AcDbArc
 50
109.471431
 51
118.647885
  0
LINE
  5
34E
100
AcDbEntity
  8
0
 62
     7
100
AcDbLine
 10
1316.680298
 20
178.468933
 30
0.0
 11
1316.680298
 21
198.468933
 31
0.0
210
0.0
220
0.0
230
1.0
  0
LINE
  5
34F
100
AcDbEntity
  8
0
 62
     7
100
AcDbLine
 10
1311.680298
 20
178.468933
 30
0.0
 11
1311.680298
 21
198.468933
 31
0.0
210
0.0
220
0.0
230
1.0
  0
LINE
  5
350
100
AcDbEntity
  8
0
 62
     7
 48
0.2
100
AcDbLine
 10
1316.680298
 20
170.468933
 30
0.0
 11
1316.680298
 21
178.468933
 31
0.0
210
0.0
220
0.0
230
1.0
  0
LINE
  5
351
100
AcDbEntity
  8
0
 62
     7
 48
0.2
100
AcDbLine
 10
1311.680298
 20
170.468933
 30
0.0
 11
1311.680298
 21
178.468933
 31
0.0
210
0.0
220
0.0
230
1.0
  0
LINE
  5
352
100
AcDbEntity
  8
0
 62
     7
100
AcDbLine
 10
1316.680298
 20
150.468933
 30
0.0
 11
1316.680298
 21
170.468933
 31
0.0
210
0.0
220
0.0
230
1.0
  0
LINE
  5
353
100
AcDbEntity
  8
0
 62
     7
100
AcDbLine
 10
1311.680298
 20
150.468933
 30
0.0
 11
1311.680298
 21
170.468933
 31
0.0
210
0.0
220
0.0
230
1.0
  0
LINE
  5
354
100
AcDbEntity
  8
0
 62
     7
 48
0.3
100
AcDbLine
 10
1316.680298
 20
150.468933
 30
0.0
 11
1316.680298
 21
138.468933
 31
0.0
210
0.0
220
0.0
230
1.0
  0
LINE
  5
355
100
AcDbEntity
  8
0
 62
     7
 48
0.3
100
AcDbLine
 10
1311.680298
 20
150.468933
 30
0.0
 11
1311.680298
 21
138.468933
 31
0.0
210
0.0
220
0.0
230
1.0
  0
LINE
  5
356
100
AcDbEntity
  8
0
 62
     7
 48
0.125
100
AcDbLine
 10
1316.680298
 20
133.468933
 30
0.0
 11
1316.680298
 21
138.468933
 31
0.0
210
0.0
220
0.0
230
1.0
  0
LINE
  5
357
100
AcDbEntity
  8
0
 62
     7
 48
0.125
100
AcDbLine
 10
1311.680298
 20
133.468933
 30
0.0
 11
1311.680298
 21
138.468933
 31
0.0
210
0.0
220
0.0
230
1.0
  0
LINE
  5
358
100
AcDbEntity
  8
0
 62
     7
 48
0.02
100
AcDbLine
 10
1307.280273
 20
130.468933
 30
0.0
 11
1307.280273
 21
129.66893
 31
0.0
210
0.0
220
0.0
230
1.0
  0
ARC
  5
359
100
AcDbEntity
  8
0
 62
     7
100
AcDbCircle
 10
1310.280273
 20
130.468933
 30
0.0
 40
3.0
210
0.0
220
0.0
230
1.0
100
AcDbArc
 50
90.000003
 51
179.999995
  0
LINE
  5
35A
100
AcDbEntity
  8
0
 62
     7
 48
0.02
100
AcDbLine
 10
1321.080322
 20
130.468933
 30
0.0
 11
1321.080322
 21
129.66893
 31
0.0
210
0.0
220
0.0
230
1.0
  0
ARC
  5
35B
100
AcDbEntity
  8
0
 62
     7
100
AcDbCircle
 10
1318.080322
 20
130.468933
 30
0.0
 40
3.0
210
0.0
220
0.0
230
1.0
100
AcDbArc
 50
360.0
 51
90.000003
  0
LINE
  5
35C
100
AcDbEntity
  8
0
 62
     7
100
AcDbLine
 10
1289.180298
 20
113.468933
 30
0.0
 11
1339.180298
 21
113.468933
 31
0.0
210
0.0
220
0.0
230
1.0
  0
LINE
  5
35D
100
AcDbEntity
  8
0
 62
     7
 48
0.049939
100
AcDbLine
 10
1291.177856
 20
63.468933
 30
0.0
 11
1289.180298
 21
63.468933
 31
0.0
210
0.0
220
0.0
230
1.0
  0
LINE
  5
35E
100
AcDbEntity
  8
0
 62
     7
 48
0.049942
100
AcDbLine
 10
1289.180298
 20
65.466599
 30
0.0
 11
1289.180298
 21
63.468933
 31
0.0
210
0.0
220
0.0
230
1.0
  0
LINE
  5
35F
100
AcDbEntity
  8
0
 62
     7
 48
0.049942
100
AcDbLine
 10
1289.180298
 20
113.468933
 30
0.0
 11
1289.180298
 21
111.471268
 31
0.0
210
0.0
220
0.0
230
1.0
  0
LINE
  5
360
100
AcDbEntity
  8
0
 62
     7
 48
0.025
100
AcDbLine
 10
1289.180298
 20
785.468933
 30
0.0
 11
1289.180298
 21
786.468933
 31
0.0
210
0.0
220
0.0
230
1.0
  0
LINE
  5
361
100
AcDbEntity
  8
0
 62
     7
100
AcDbLine
 10
1289.180298
 20
785.468933
 30
0.0
 11
1339.180298
 21
785.468933
 31
0.0
210
0.0
220
0.0
230
1.0
  0
LINE
  5
362
100
AcDbEntity
  8
0
 62
     7
 48
0.025
100
AcDbLine
 10
1339.180298
 20
785.468933
 30
0.0
 11
1339.180298
 21
786.468933
 31
0.0
210
0.0
220
0.0
230
1.0
  0
LINE
  5
363
100
AcDbEntity
  8
0
 62
     7
100
AcDbLine
 10
1289.180298
 20
786.468933
 30
0.0
 11
1339.180298
 21
786.468933
 31
0.0
210
0.0
220
0.0
230
1.0
  0
LINE
  5
364
100
AcDbEntity
  8
0
 62
     7
 48
0.025
100
AcDbLine
 10
1289.180298
 20
62.468933
 30
0.0
 11
1289.180298
 21
63.468933
 31
0.0
210
0.0
220
0.0
230
1.0
  0
LINE
  5
365
100
AcDbEntity
  8
0
 62
     7
100
AcDbLine
 10
1289.180298
 20
62.468933
 30
0.0
 11
1339.180298
 21
62.468933
 31
0.0
210
0.0
220
0.0
230
1.0
  0
LINE
  5
366
100
AcDbEntity
  8
0
 62
     7
 48
0.025
100
AcDbLine
 10
1339.180298
 20
62.468933
 30
0.0
 11
1339.180298
 21
63.468933
 31
0.0
210
0.0
220
0.0
230
1.0
  0
CIRCLE
  5
367
100
AcDbEntity
  8
0
 62
     7
100
AcDbCircle
 10
982.574768
 20
-24.156128
 30
0.0
 40
2.5
210
0.0
220
0.0
230
1.0
  0
LINE
  5
368
100
AcDbEntity
  8
0
 62
     7
 48
0.05
100
AcDbLine
 10
968.384766
 20
-54.156128
 30
0.0
 11
968.384766
 21
-56.156128
 31
0.0
210
0.0
220
0.0
230
1.0
  0
LINE
  5
369
100
AcDbEntity
  8
0
 62
     7
 48
0.05
100
AcDbLine
 10
961.884766
 20
-54.156128
 30
0.0
 11
961.884766
 21
-56.156128
 31
0.0
210
0.0
220
0.0
230
1.0
  0
LINE
  5
36A
100
AcDbEntity
  8
0
 62
     7
 48
0.1625
100
AcDbLine
 10
961.884766
 20
-56.156128
 30
0.0
 11
968.384766
 21
-56.156128
 31
0.0
210
0.0
220
0.0
230
1.0
  0
LINE
  5
36B
100
AcDbEntity
  8
0
 62
     7
 48
0.1625
100
AcDbLine
 10
968.384766
 20
-54.156128
 30
0.0
 11
961.884766
 21
-54.156128
 31
0.0
210
0.0
220
0.0
230
1.0
  0
CIRCLE
  5
36C
100
AcDbEntity
  8
0
 62
     7
100
AcDbCircle
 10
947.694763
 20
-24.156128
 30
0.0
 40
2.5
210
0.0
220
0.0
230
1.0
  0
LINE
  5
36D
100
AcDbEntity
  8
0
 62
     7
 48
0.05
100
AcDbLine
 10
990.134766
 20
-52.156128
 30
0.0
 11
990.134766
 21
-54.156128
 31
0.0
210
0.0
220
0.0
230
1.0
  0
LINE
  5
36E
100
AcDbEntity
  8
0
 62
     7
 48
0.05
100
AcDbLine
 10
940.134766
 20
-52.156128
 30
0.0
 11
940.134766
 21
-54.156128
 31
0.0
210
0.0
220
0.0
230
1.0
  0
ARC
  5
36F
100
AcDbEntity
  8
0
 62
     7
100
AcDbCircle
 10
942.134766
 20
-1.156128
 30
0.0
 40
2.0
210
0.0
220
0.0
230
1.0
100
AcDbArc
 50
90.000003
 51
180.000005
  0
LINE
  5
370
100
AcDbEntity
  8
0
 62
     7
100
AcDbLine
 10
990.134766
 20
-1.156128
 30
0.0
 11
990.134766
 21
-52.156128
 31
0.0
210
0.0
220
0.0
230
1.0
  0
LINE
  5
371
100
AcDbEntity
  8
0
 62
     7
100
AcDbLine
 10
940.134766
 20
-1.156128
 30
0.0
 11
940.134766
 21
-52.156128
 31
0.0
210
0.0
220
0.0
230
1.0
  0
LINE
  5
372
100
AcDbEntity
  8
0
 62
     7
100
AcDbLine
 10
988.134766
 20
0.843872
 30
0.0
 11
942.134766
 21
0.843872
 31
0.0
210
0.0
220
0.0
230
1.0
  0
ARC
  5
373
100
AcDbEntity
  8
0
 62
     7
100
AcDbCircle
 10
988.134766
 20
-1.156128
 30
0.0
 40
2.0
210
0.0
220
0.0
230
1.0
100
AcDbArc
 50
0.0
 51
90.000003
  0
LINE
  5
374
100
AcDbEntity
  8
0
 62
     7
 48
0.49375
100
AcDbLine
 10
988.134766
 20
-54.156128
 30
0.0
 11
968.384766
 21
-54.156128
 31
0.0
210
0.0
220
0.0
230
1.0
  0
LINE
  5
375
100
AcDbEntity
  8
0
 62
     7
 48
0.49375
100
AcDbLine
 10
988.134766
 20
-56.156128
 30
0.0
 11
968.384766
 21
-56.156128
 31
0.0
210
0.0
220
0.0
230
1.0
  0
LINE
  5
376
100
AcDbEntity
  8
0
 62
     7
 48
0.05
100
AcDbLine
 10
990.134766
 20
-56.156128
 30
0.0
 11
990.134766
 21
-54.156128
 31
0.0
210
0.0
220
0.0
230
1.0
  0
LINE
  5
377
100
AcDbEntity
  8
0
 62
     7
 48
0.05
100
AcDbLine
 10
988.134766
 20
-54.156128
 30
0.0
 11
990.134766
 21
-54.156128
 31
0.0
210
0.0
220
0.0
230
1.0
  0
LINE
  5
378
100
AcDbEntity
  8
0
 62
     7
 48
0.05
100
AcDbLine
 10
988.134766
 20
-56.156128
 30
0.0
 11
990.134766
 21
-56.156128
 31
0.0
210
0.0
220
0.0
230
1.0
  0
LINE
  5
379
100
AcDbEntity
  8
0
 62
     7
 48
0.49375
100
AcDbLine
 10
961.884766
 20
-56.156128
 30
0.0
 11
942.134766
 21
-56.156128
 31
0.0
210
0.0
220
0.0
230
1.0
  0
LINE
  5
37A
100
AcDbEntity
  8
0
 62
     7
 48
0.49375
100
AcDbLine
 10
961.884766
 20
-54.156128
 30
0.0
 11
942.134766
 21
-54.156128
 31
0.0
210
0.0
220
0.0
230
1.0
  0
LINE
  5
37B
100
AcDbEntity
  8
0
 62
     7
 48
0.05
100
AcDbLine
 10
940.134766
 20
-56.156128
 30
0.0
 11
940.134766
 21
-54.156128
 31
0.0
210
0.0
220
0.0
230
1.0
  0
LINE
  5
37C
100
AcDbEntity
  8
0
 62
     7
 48
0.05
100
AcDbLine
 10
940.134766
 20
-56.156128
 30
0.0
 11
942.134766
 21
-56.156128
 31
0.0
210
0.0
220
0.0
230
1.0
  0
LINE
  5
37D
100
AcDbEntity
  8
0
 62
     7
 48
0.05
100
AcDbLine
 10
940.134766
 20
-54.156128
 30
0.0
 11
942.134766
 21
-54.156128
 31
0.0
210
0.0
220
0.0
230
1.0
  0
ARC
  5
37E
100
AcDbEntity
  8
0
 62
     7
100
AcDbCircle
 10
710.134766
 20
-52.156128
 30
0.0
 40
4.0
210
0.0
220
0.0
230
1.0
100
AcDbArc
 50
269.999997
 51
360.0
  0
ARC
  5
37F
100
AcDbEntity
  8
0
 62
     7
100
AcDbCircle
 10
710.134766
 20
-52.156128
 30
0.0
 40
2.0
210
0.0
220
0.0
230
1.0
100
AcDbArc
 50
269.999997
 51
360.0
  0
LINE
  5
380
100
AcDbEntity
  8
0
 62
     7
100
AcDbLine
 10
712.134766
 20
-1.156128
 30
0.0
 11
712.134766
 21
-52.156128
 31
0.0
210
0.0
220
0.0
230
1.0
  0
LINE
  5
381
100
AcDbEntity
  8
0
 62
     7
 48
0.05
100
AcDbLine
 10
712.134766
 20
-1.156128
 30
0.0
 11
712.134766
 21
0.843872
 31
0.0
210
0.0
220
0.0
230
1.0
  0
LINE
  5
382
100
AcDbEntity
  8
0
 62
     7
100
AcDbLine
 10
714.134766
 20
-1.156128
 30
0.0
 11
714.134766
 21
-52.156128
 31
0.0
210
0.0
220
0.0
230
1.0
  0
LINE
  5
383
100
AcDbEntity
  8
0
 62
     7
 48
0.05
100
AcDbLine
 10
712.134766
 20
0.843872
 30
0.0
 11
714.134766
 21
0.843872
 31
0.0
210
0.0
220
0.0
230
1.0
  0
LINE
  5
384
100
AcDbEntity
  8
0
 62
     7
 48
0.05
100
AcDbLine
 10
684.134766
 20
-56.156128
 30
0.0
 11
684.134766
 21
-54.156128
 31
0.0
210
0.0
220
0.0
230
1.0
  0
LINE
  5
385
100
AcDbEntity
  8
0
 62
     7
100
AcDbLine
 10
710.134766
 20
-54.156128
 30
0.0
 11
686.134766
 21
-54.156128
 31
0.0
210
0.0
220
0.0
230
1.0
  0
LINE
  5
386
100
AcDbEntity
  8
0
 62
     7
100
AcDbLine
 10
710.134766
 20
-56.156128
 30
0.0
 11
686.134766
 21
-56.156128
 31
0.0
210
0.0
220
0.0
230
1.0
  0
LINE
  5
387
100
AcDbEntity
  8
0
 62
     7
 48
0.05
100
AcDbLine
 10
684.134766
 20
-54.156128
 30
0.0
 11
686.134766
 21
-54.156128
 31
0.0
210
0.0
220
0.0
230
1.0
  0
LINE
  5
388
100
AcDbEntity
  8
0
 62
     7
 48
0.05
100
AcDbLine
 10
684.134766
 20
-56.156128
 30
0.0
 11
686.134766
 21
-56.156128
 31
0.0
210
0.0
220
0.0
230
1.0
  0
LINE
  5
389
100
AcDbEntity
  8
0
 62
     7
100
AcDbLine
 10
1215.134766
 20
-49.156128
 30
0.0
 11
990.134766
 21
-49.156128
 31
0.0
210
0.0
220
0.0
230
1.0
  0
LINE
  5
38A
100
AcDbEntity
  8
0
 62
     7
100
AcDbLine
 10
940.134766
 20
-49.156128
 30
0.0
 11
715.134766
 21
-49.156128
 31
0.0
210
0.0
220
0.0
230
1.0
  0
LINE
  5
38B
100
AcDbEntity
  8
0
 62
     7
100
AcDbLine
 10
1215.134766
 20
-49.156128
 30
0.0
 11
1215.134766
 21
0.843872
 31
0.0
210
0.0
220
0.0
230
1.0
  0
LINE
  5
38C
100
AcDbEntity
  8
0
 62
     7
100
AcDbLine
 10
1215.134766
 20
0.843872
 30
0.0
 11
990.134766
 21
0.843872
 31
0.0
210
0.0
220
0.0
230
1.0
  0
LINE
  5
38D
100
AcDbEntity
  8
0
 62
     7
100
AcDbLine
 10
940.134766
 20
0.843872
 30
0.0
 11
715.134766
 21
0.843872
 31
0.0
210
0.0
220
0.0
230
1.0
  0
LINE
  5
38E
100
AcDbEntity
  8
0
 62
     7
100
AcDbLine
 10
715.134766
 20
-49.156128
 30
0.0
 11
715.134766
 21
0.843872
 31
0.0
210
0.0
220
0.0
230
1.0
  0
ARC
  5
38F
100
AcDbEntity
  8
0
 62
     7
100
AcDbCircle
 10
1220.134766
 20
-52.156128
 30
0.0
 40
4.0
210
0.0
220
0.0
230
1.0
100
AcDbArc
 50
180.000005
 51
269.999997
  0
ARC
  5
390
100
AcDbEntity
  8
0
 62
     7
100
AcDbCircle
 10
1220.134766
 20
-52.156128
 30
0.0
 40
2.0
210
0.0
220
0.0
230
1.0
100
AcDbArc
 50
180.000005
 51
269.999997
  0
LINE
  5
391
100
AcDbEntity
  8
0
 62
     7
 48
0.05
100
AcDbLine
 10
1216.134766
 20
0.843872
 30
0.0
 11
1216.134766
 21
-1.156128
 31
0.0
210
0.0
220
0.0
230
1.0
  0
LINE
  5
392
100
AcDbEntity
  8
0
 62
     7
 48
0.05
100
AcDbLine
 10
1218.134766
 20
0.843872
 30
0.0
 11
1218.134766
 21
-1.156128
 31
0.0
210
0.0
220
0.0
230
1.0
  0
LINE
  5
393
100
AcDbEntity
  8
0
 62
     7
 48
0.05
100
AcDbLine
 10
1218.134766
 20
0.843872
 30
0.0
 11
1216.134766
 21
0.843872
 31
0.0
210
0.0
220
0.0
230
1.0
  0
LINE
  5
394
100
AcDbEntity
  8
0
 62
     7
100
AcDbLine
 10
1218.134766
 20
-1.156128
 30
0.0
 11
1218.134766
 21
-52.156128
 31
0.0
210
0.0
220
0.0
230
1.0
  0
LINE
  5
395
100
AcDbEntity
  8
0
 62
     7
100
AcDbLine
 10
1216.134766
 20
-1.156128
 30
0.0
 11
1216.134766
 21
-52.156128
 31
0.0
210
0.0
220
0.0
230
1.0
  0
LINE
  5
396
100
AcDbEntity
  8
0
 62
     7
 48
0.05
100
AcDbLine
 10
1246.134766
 20
-56.156128
 30
0.0
 11
1246.134766
 21
-54.156128
 31
0.0
210
0.0
220
0.0
230
1.0
  0
LINE
  5
397
100
AcDbEntity
  8
0
 62
     7
100
AcDbLine
 10
1220.134766
 20
-54.156128
 30
0.0
 11
1244.134766
 21
-54.156128
 31
0.0
210
0.0
220
0.0
230
1.0
  0
LINE
  5
398
100
AcDbEntity
  8
0
 62
     7
100
AcDbLine
 10
1220.134766
 20
-56.156128
 30
0.0
 11
1244.134766
 21
-56.156128
 31
0.0
210
0.0
220
0.0
230
1.0
  0
LINE
  5
399
100
AcDbEntity
  8
0
 62
     7
 48
0.05
100
AcDbLine
 10
1244.134766
 20
-56.156128
 30
0.0
 11
1246.134766
 21
-56.156128
 31
0.0
210
0.0
220
0.0
230
1.0
  0
LINE
  5
39A
100
AcDbEntity
  8
0
 62
     7
 48
0.05
100
AcDbLine
 10
1244.134766
 20
-54.156128
 30
0.0
 11
1246.134766
 21
-54.156128
 31
0.0
210
0.0
220
0.0
230
1.0
  0
LINE
  5
39B
100
AcDbEntity
  8
0
 62
     7
 48
0.025
100
AcDbLine
 10
1216.134766
 20
-49.156128
 30
0.0
 11
1215.134766
 21
-49.156128
 31
0.0
210
0.0
220
0.0
230
1.0
  0
LINE
  5
39C
100
AcDbEntity
  8
0
 62
     7
100
AcDbLine
 10
1216.134766
 20
-49.156128
 30
0.0
 11
1216.134766
 21
0.843872
 31
0.0
210
0.0
220
0.0
230
1.0
  0
LINE
  5
39D
100
AcDbEntity
  8
0
 62
     7
 48
0.025
100
AcDbLine
 10
1216.134766
 20
0.843872
 30
0.0
 11
1215.134766
 21
0.843872
 31
0.0
210
0.0
220
0.0
230
1.0
  0
LINE
  5
39E
100
AcDbEntity
  8
0
 62
     7
100
AcDbLine
 10
1215.134766
 20
-49.156128
 30
0.0
 11
1215.134766
 21
0.843872
 31
0.0
210
0.0
220
0.0
230
1.0
  0
LINE
  5
39F
100
AcDbEntity
  8
0
 62
     7
 48
0.025
100
AcDbLine
 10
714.134766
 20
0.843872
 30
0.0
 11
715.134766
 21
0.843872
 31
0.0
210
0.0
220
0.0
230
1.0
  0
LINE
  5
3A0
100
AcDbEntity
  8
0
 62
     7
100
AcDbLine
 10
714.134766
 20
0.843872
 30
0.0
 11
714.134766
 21
-49.156128
 31
0.0
210
0.0
220
0.0
230
1.0
  0
LINE
  5
3A1
100
AcDbEntity
  8
0
 62
     7
 48
0.025
100
AcDbLine
 10
714.134766
 20
-49.156128
 30
0.0
 11
715.134766
 21
-49.156128
 31
0.0
210
0.0
220
0.0
230
1.0
  0
LINE
  5
3A2
100
AcDbEntity
  8
0
 62
     7
100
AcDbLine
 10
715.134766
 20
0.843872
 30
0.0
 11
715.134766
 21
-49.156128
 31
0.0
210
0.0
220
0.0
230
1.0
  0
LINE
  5
3A3
100
AcDbEntity
  8
0
 62
     7
100
AcDbLine
 10
990.134766
 20
0.843872
 30
0.0
 11
990.134766
 21
-49.156128
 31
0.0
210
0.0
220
0.0
230
1.0
  0
LINE
  5
3A4
100
AcDbEntity
  8
0
 62
     7
 48
0.049939
100
AcDbLine
 10
940.134766
 20
-1.153687
 30
0.0
 11
940.134766
 21
0.843872
 31
0.0
210
0.0
220
0.0
230
1.0
  0
LINE
  5
3A5
100
AcDbEntity
  8
0
 62
     7
 48
0.04994
100
AcDbLine
 10
942.132385
 20
0.843872
 30
0.0
 11
940.134766
 21
0.843872
 31
0.0
210
0.0
220
0.0
230
1.0
  0
LINE
  5
3A6
100
AcDbEntity
  8
0
 62
     7
 48
0.04994
100
AcDbLine
 10
990.134766
 20
0.843872
 30
0.0
 11
988.137146
 21
0.843872
 31
0.0
210
0.0
220
0.0
230
1.0
  0
ENDSEC
  0
SECTION
  2
OBJECTS
  0
DICTIONARY
  5
19
100
AcDbDictionary
  3
ACAD_GROUP
350
1A
  3
ACAD_MLINESTYLE
350
1B
  0
DICTIONARY
  5
1A
102
{ACAD_REACTORS
330
19
102
}
100
AcDbDictionary
  0
DICTIONARY
  5
1B
102
{ACAD_REACTORS
330
19
102
}
100
AcDbDictionary
  3
STANDARD
350
1C
  0
MLINESTYLE
  5
1C
102
{ACAD_REACTORS
330
1B
102
}
100
AcDbMlineStyle
  2
STANDARD
 70
     0
  3

 62
     0
 51
90.0
 52
90.0
 71
     2
 49
0.5
 62
   256
  6
BYLAYER
 49
-0.5
 62
   256
  6
BYLAYER
  0
ENDSEC
  0
EOF
